  0
SECTION
  2
HEADER
  9
$ACADVER
  1
AC1009
  9
$INSBASE
 10
0.0
 20
0.0
 30
0.0
  9
$EXTMIN
 10
-800.05492744973753
 20
-1201.987760834849
 30
-0.0015258207003583
  9
$EXTMAX
 10
1000.05493583164
 20
1471.8678425700821
 30
0.0000000349246037
  9
$LIMMIN
 10
0.0
 20
0.0
  9
$LIMMAX
 10
0.0
 20
0.0
  9
$ORTHOMODE
 70
     0
  9
$REGENMODE
 70
     1
  9
$FILLMODE
 70
     1
  9
$QTEXTMODE
 70
     0
  9
$MIRRTEXT
 70
     1
  9
$DRAGMODE
 70
     2
  9
$LTSCALE
 40
50.799999999999997
  9
$OSMODE
 70
   167
  9
$ATTMODE
 70
     1
  9
$TEXTSIZE
 40
0.0
  9
$TRACEWID
 40
1.0
  9
$TEXTSTYLE
  7
STANDARD
  9
$CLAYER
  8
0
  9
$CELTYPE
  6
CONTINUOUS
  9
$CECOLOR
 62
   256
  9
$DIMSCALE
 40
1.0
  9
$DIMASZ
 40
0.18
  9
$DIMEXO
 40
0.0625
  9
$DIMDLI
 40
0.38
  9
$DIMRND
 40
0.0
  9
$DIMDLE
 40
0.0
  9
$DIMEXE
 40
0.18
  9
$DIMTP
 40
0.0
  9
$DIMTM
 40
0.0
  9
$DIMTXT
 40
0.18
  9
$DIMCEN
 40
0.09
  9
$DIMTSZ
 40
0.0
  9
$DIMTOL
 70
     0
  9
$DIMLIM
 70
     0
  9
$DIMTIH
 70
     1
  9
$DIMTOH
 70
     1
  9
$DIMSE1
 70
     0
  9
$DIMSE2
 70
     0
  9
$DIMTAD
 70
     0
  9
$DIMZIN
 70
     0
  9
$DIMBLK
  1

  9
$DIMASO
 70
     1
  9
$DIMSHO
 70
     1
  9
$DIMPOST
  1

  9
$DIMAPOST
  1

  9
$DIMALT
 70
     0
  9
$DIMALTD
 70
     2
  9
$DIMALTF
 40
25.399999999999999
  9
$DIMLFAC
 40
1.0
  9
$DIMTOFL
 70
     0
  9
$DIMTVP
 40
0.0
  9
$DIMTIX
 70
     0
  9
$DIMSOXD
 70
     0
  9
$DIMSAH
 70
     0
  9
$DIMBLK1
  1

  9
$DIMBLK2
  1

  9
$DIMSTYLE
  2
STANDARD
  9
$DIMCLRD
 70
     0
  9
$DIMCLRE
 70
     0
  9
$DIMCLRT
 70
     0
  9
$DIMTFAC
 40
1.0
  9
$DIMGAP
 40
0.09
  9
$LUNITS
 70
     2
  9
$LUPREC
 70
     4
  9
$SKETCHINC
 40
0.1
  9
$FILLETRAD
 40
0.0
  9
$AUNITS
 70
     0
  9
$AUPREC
 70
     0
  9
$MENU
  1
acad
  9
$ELEVATION
 40
0.0
  9
$PELEVATION
 40
0.0
  9
$THICKNESS
 40
0.0
  9
$LIMCHECK
 70
     0
  9
$BLIPMODE
 70
     0
  9
$CHAMFERA
 40
0.0
  9
$CHAMFERB
 40
0.0
  9
$SKPOLY
 70
     0
  9
$TDCREATE
 40
2452516.61537037
  9
$TDUPDATE
 40
2452516.652070486
  9
$TDINDWG
 40
0.0008702546
  9
$TDUSRTIMER
 40
0.0008689815
  9
$USRTIMER
 70
     1
  9
$ANGBASE
 50
0.0
  9
$ANGDIR
 70
     0
  9
$PDMODE
 70
     1
  9
$PDSIZE
 40
-2.0
  9
$PLINEWID
 40
0.0
  9
$COORDS
 70
     0
  9
$SPLFRAME
 70
     0
  9
$SPLINETYPE
 70
     6
  9
$SPLINESEGS
 70
     8
  9
$ATTDIA
 70
     0
  9
$ATTREQ
 70
     1
  9
$HANDLING
 70
 22529
  9
$HANDSEED
  5
943
  9
$SURFTAB1
 70
     6
  9
$SURFTAB2
 70
     6
  9
$SURFTYPE
 70
     6
  9
$SURFU
 70
     6
  9
$SURFV
 70
     6
  9
$UCSNAME
  2

  9
$UCSORG
 10
0.0
 20
0.0
 30
0.0
  9
$UCSXDIR
 10
1.0
 20
0.0
 30
0.0
  9
$UCSYDIR
 10
0.0
 20
1.0
 30
0.0
  9
$PUCSNAME
  2

  9
$PUCSORG
 10
0.0
 20
0.0
 30
0.0
  9
$PUCSXDIR
 10
1.0
 20
0.0
 30
0.0
  9
$PUCSYDIR
 10
0.0
 20
1.0
 30
0.0
  9
$USERI1
 70
     0
  9
$USERI2
 70
     0
  9
$USERI3
 70
     0
  9
$USERI4
 70
     0
  9
$USERI5
 70
     0
  9
$USERR1
 40
0.0
  9
$USERR2
 40
0.0
  9
$USERR3
 40
0.0
  9
$USERR4
 40
0.0
  9
$USERR5
 40
0.0
  9
$WORLDVIEW
 70
     1
  9
$SHADEDGE
 70
     3
  9
$SHADEDIF
 70
    70
  9
$TILEMODE
 70
     1
  9
$MAXACTVP
 70
    16
  9
$PLIMCHECK
 70
     0
  9
$PEXTMIN
 10
1.0000000000000000E+020
 20
1.0000000000000000E+020
 30
1.0000000000000000E+020
  9
$PEXTMAX
 10
-1.0000000000000000E+020
 20
-1.0000000000000000E+020
 30
-1.0000000000000000E+020
  9
$PLIMMIN
 10
0.0
 20
0.0
  9
$PLIMMAX
 10
12.0
 20
9.0
  9
$UNITMODE
 70
     0
  9
$VISRETAIN
 70
     0
  9
$PLINEGEN
 70
     1
  9
$PSLTSCALE
 70
     0
  0
ENDSEC
  0
SECTION
  2
TABLES
  0
TABLE
  2
VPORT
 70
     2
  0
VPORT
  2
*ACTIVE
 70
     0
 10
0.0
 20
0.0
 11
1.0
 21
1.0
 12
100.0000064810942
 22
134.94003775894311
 13
0.0
 23
0.0
 14
1.0
 24
1.0
 15
0.0
 25
0.0
 16
0.0
 26
0.0
 36
1.0
 17
0.0
 27
0.0
 37
0.0
 40
3134.264510965656
 41
1.664912280701754
 42
50.0
 43
0.0
 44
0.0
 50
0.0
 51
0.0
 71
     0
 72
   100
 73
     1
 74
     1
 75
     0
 76
     0
 77
     0
 78
     0
  0
ENDTAB
  0
TABLE
  2
LTYPE
 70
    11
  0
LTYPE
  2
CONTINUOUS
 70
     0
  3
Solid line
 72
    65
 73
     0
 40
0.0
  0
LTYPE
  2
STYLE_01
 70
     0
  3

 72
    65
 73
     2
 40
0.4166412353515625
 49
0.208282470703125
 49
-0.2083587646484375
  0
LTYPE
  2
STYLE_02
 70
     0
  3

 72
    65
 73
     2
 40
0.694427490234375
 49
0.4860687255859375
 49
-0.2083587646484375
  0
LTYPE
  2
STYLE_03
 70
     0
  3

 72
    65
 73
     2
 40
1.25
 49
1.0416412353515621
 49
-0.2083587646484375
  0
LTYPE
  2
STYLE_04
 70
     0
  3

 72
    65
 73
     2
 40
1.5277099609375
 49
1.319427490234375
 49
-0.208282470703125
  0
LTYPE
  2
STYLE_05
 70
     0
  3

 72
    65
 73
     2
 40
0.208282470703125
 49
0.069427490234375
 49
-0.13885498046875
  0
LTYPE
  2
STYLE_06
 70
     0
  3

 72
    65
 73
     4
 40
1.0416412353515621
 49
0.625
 49
-0.208282470703125
 49
0.069427490234375
 49
-0.1389312744140625
  0
LTYPE
  2
STYLE_07
 70
     0
  3

 72
    65
 73
     6
 40
1.875
 49
0.625
 49
-0.208282470703125
 49
0.625
 49
-0.2083587646484375
 49
0.069427490234375
 49
-0.1389312744140625
  0
LTYPE
  2
STYLE_08
 70
     0
  3

 72
    65
 73
     6
 40
1.25
 49
0.625
 49
-0.208282470703125
 49
0.069427490234375
 49
-0.1389312744140625
 49
0.069427490234375
 49
-0.1389312744140625
  0
LTYPE
  2
STYLE_09
 70
     0
  3

 72
    65
 73
     4
 40
5.0
 49
3.75
 49
-0.2777862548828125
 49
0.694427490234375
 49
-0.2777862548828125
  0
LTYPE
  2
STYLE_10
 70
     0
  3

 72
    65
 73
     6
 40
5.9375
 49
3.75
 49
-0.2777862548828125
 49
0.694427490234375
 49
-0.2777862548828125
 49
0.625
 49
-0.3125
  0
ENDTAB
  0
TABLE
  2
LAYER
 70
    10
  0
LAYER
  2
0
 70
     0
 62
     7
  6
CONTINUOUS
  0
LAYER
  2
HIBINO-BASE
 70
     0
 62
     7
  6
CONTINUOUS
  0
LAYER
  2
SIED-DOWN-18_5
 70
     0
 62
     7
  6
CONTINUOUS
  0
LAYER
  2
SIDE-UP18_5
 70
     0
 62
     7
  6
CONTINUOUS
  0
LAYER
  2
TOP22
 70
     0
 62
     7
  6
CONTINUOUS
  0
LAYER
  2
BRACKET
 70
     0
 62
     7
  6
CONTINUOUS
  0
LAYER
  2
PATTERN_FILL
 70
     0
 62
     7
  6
CONTINUOUS
  0
LAYER
  2
SPEC
 70
     0
 62
     7
  6
CONTINUOUS
  0
LAYER
  2
DIMNSIONS
 70
     0
 62
     7
  6
CONTINUOUS
  0
LAYER
  2
DATA
 70
     0
 62
     7
  6
CONTINUOUS
  0
ENDTAB
  0
TABLE
  2
STYLE
 70
     2
  0
STYLE
  2
STANDARD
 70
     0
 40
0.0
 41
1.0
 50
0.0
 71
     0
 42
0.0
  3
txt
  4
BIGFONT.SHX
  0
ENDTAB
  0
TABLE
  2
VIEW
 70
     0
  0
ENDTAB
  0
TABLE
  2
UCS
 70
     0
  0
ENDTAB
  0
TABLE
  2
APPID
 70
     1
  0
APPID
  2
ACAD
 70
     0
  0
ENDTAB
  0
TABLE
  2
DIMSTYLE
 70
     1
  0
DIMSTYLE
  2
STANDARD
 70
     0
  3

  4

  5

  6

  7

 40
1.0
 41
0.18
 42
0.0625
 43
0.38
 44
0.18
 45
0.0
 46
0.0
 47
0.0
 48
0.0
140
0.18
141
0.09
142
0.0
143
25.399999999999999
144
1.0
145
0.0
146
1.0
147
0.09
 71
     0
 72
     0
 73
     1
 74
     1
 75
     0
 76
     0
 77
     0
 78
     0
170
     0
171
     2
172
     0
173
     0
174
     0
175
     0
176
     0
177
     0
178
     0
  0
ENDTAB
  0
ENDSEC
  0
SECTION
  2
BLOCKS
  0
BLOCK
  8
0
  2
$MODEL_SPACE
 70
     0
 10
0.0
 20
0.0
 30
0.0
  3
$MODEL_SPACE
  1

  0
ENDBLK
  5
4B4
  8
0
  0
BLOCK
 67
     1
  8
0
  2
$PAPER_SPACE
 70
     0
 10
0.0
 20
0.0
 30
0.0
  3
$PAPER_SPACE
  1

  0
ENDBLK
  5
4B0
 67
     1
  8
0
  0
BLOCK
  8
PATTERN_FILL
  2
*U0
 70
     1
 10
0.0
 20
0.0
 30
0.0
  3
*U0
  1

  0
LINE
  5
4D1
  8
PATTERN_FILL
  6
CONTINUOUS
 62
     7
 10
29.59314575050762
 20
348.3284271247461
 30
0.0
 11
32.421572875253887
 21
351.15685424949243
 31
0.0
  0
LINE
  5
4D2
  8
PATTERN_FILL
  6
CONTINUOUS
 62
     7
 10
29.522077938642159
 20
346.84314575050757
 30
0.0
 11
33.90685424949239
 21
351.22792206135779
 31
0.0
  0
LINE
  5
4D3
  8
PATTERN_FILL
  6
CONTINUOUS
 62
     7
 10
29.936291501015241
 20
345.84314575050757
 30
0.0
 11
34.906854249492397
 21
350.81370849898468
 31
0.0
  0
LINE
  5
4D4
  8
PATTERN_FILL
  6
CONTINUOUS
 62
     7
 10
30.350505063388329
 20
344.84314575050757
 30
0.0
 11
35.906854249492383
 21
350.39949493661157
 31
0.0
  0
LINE
  5
4D5
  8
PATTERN_FILL
  6
CONTINUOUS
 62
     7
 10
31.249999999999961
 20
344.3284271247461
 30
0.0
 11
36.421572875253801
 21
349.5
 31
0.0
  0
LINE
  5
4D6
  8
PATTERN_FILL
  6
CONTINUOUS
 62
     7
 10
32.249999999999979
 20
343.91421356237299
 30
0.0
 11
36.835786437626922
 21
348.49999999999989
 31
0.0
  0
LINE
  5
4D7
  8
PATTERN_FILL
  6
CONTINUOUS
 62
     7
 10
33.250000000000092
 20
343.5
 30
0.0
 11
37.249999999999957
 21
347.49999999999977
 31
0.0
  0
LINE
  5
4D8
  8
PATTERN_FILL
  6
CONTINUOUS
 62
     7
 10
35.664213562373178
 20
344.5
 30
0.0
 11
36.249999999999957
 21
345.08578643762672
 31
0.0
  0
ENDBLK
  5
4D9
  8
PATTERN_FILL
  0
BLOCK
  8
PATTERN_FILL
  2
*U1
 70
     1
 10
0.0
 20
0.0
 30
0.0
  3
*U1
  1

  0
LINE
  5
4DC
  8
PATTERN_FILL
  6
CONTINUOUS
 62
     7
 10
71.3327381104219
 20
273.30330085889892
 30
0.0
 11
74.196699141101064
 21
276.16726188957801
 31
0.0
  0
LINE
  5
4DD
  8
PATTERN_FILL
  6
CONTINUOUS
 62
     7
 10
71.276388924317956
 20
271.83273811042199
 30
0.0
 11
75.6672618895781
 21
276.22361107568202
 31
0.0
  0
LINE
  5
4DE
  8
PATTERN_FILL
  6
CONTINUOUS
 62
     7
 10
71.690602486691034
 20
270.83273811042187
 30
0.0
 11
76.667261889578114
 21
275.80939751330891
 31
0.0
  0
LINE
  5
4DF
  8
PATTERN_FILL
  6
CONTINUOUS
 62
     7
 10
72.104816049064141
 20
269.83273811042199
 30
0.0
 11
77.667261889578114
 21
275.3951839509358
 31
0.0
  0
LINE
  5
4E0
  8
PATTERN_FILL
  6
CONTINUOUS
 62
     7
 10
73.010407640085702
 20
269.32411613907033
 30
0.0
 11
78.175883860929616
 21
274.48959235991418
 31
0.0
  0
LINE
  5
4E1
  8
PATTERN_FILL
  6
CONTINUOUS
 62
     7
 10
74.010407640085731
 20
268.90990257669722
 30
0.0
 11
78.590097423302737
 21
273.48959235991418
 31
0.0
  0
LINE
  5
4E2
  8
PATTERN_FILL
  6
CONTINUOUS
 62
     7
 10
75.025126265847334
 20
268.5104076400857
 30
0.0
 11
78.989592359914212
 21
272.4748737341526
 31
0.0
  0
LINE
  5
4E3
  8
PATTERN_FILL
  6
CONTINUOUS
 62
     7
 10
77.439339828220383
 20
269.51040764008559
 30
0.0
 11
77.989592359914241
 21
270.06066017177949
 31
0.0
  0
ENDBLK
  5
4E4
  8
PATTERN_FILL
  0
ENDSEC
  0
SECTION
  2
ENTITIES
  0
LINE
  5
4E5
  8
HIBINO-BASE
  6
CONTINUOUS
 62
     7
 10
-800.0
 20
1471.786335
 30
0.0
 11
1000.0
 21
1471.786335
 31
0.0
  0
LINE
  5
4E6
  8
HIBINO-BASE
  6
CONTINUOUS
 62
     7
 10
1000.0
 20
-1128.213665
 30
0.0
 11
-800.0
 21
-1128.213665
 31
0.0
  0
LINE
  5
4E7
  8
HIBINO-BASE
  6
CONTINUOUS
 62
     7
 10
-800.0
 20
-1128.213665
 30
0.0
 11
-800.0
 21
1471.786335
 31
0.0
  0
TEXT
  5
4E8
  8
HIBINO-BASE
 62
     7
 10
-728.15999999999985
 20
-1189.493504999999
 30
0.0
 40
37.425840000000001
  1
Hibino Corporation
 41
0.8
 11
-728.15999999999985
 21
-1152.0676649999989
 31
0.0
 73
     3
  0
LINE
  5
4E9
  8
HIBINO-BASE
  6
CONTINUOUS
 62
     7
 10
1000.0
 20
1471.786335
 30
0.0
 11
1000.0
 21
-1128.213665
 31
0.0
  0
LINE
  5
4EA
  8
HIBINO-BASE
  6
CONTINUOUS
 62
     7
 10
100.0
 20
-903.21366500000011
 30
0.0
 11
1000.0
 21
-903.21366500000011
 31
0.0
  0
LINE
  5
4EB
  8
HIBINO-BASE
  6
CONTINUOUS
 62
     7
 10
100.0
 20
-1128.213665
 30
0.0
 11
100.0
 21
-903.21366500000011
 31
0.0
  0
TEXT
  5
4EC
  8
HIBINO-BASE
 62
     7
 10
109.0
 20
-928.81022499999995
 30
0.0
 40
18.712959999999999
  1
NOTE
 41
0.8
 11
109.0
 21
-910.09726499999999
 31
0.0
 73
     3
  0
LINE
  5
4ED
  8
HIBINO-BASE
  6
CONTINUOUS
 62
     7
 10
450.0
 20
-1128.213665
 30
0.0
 11
450.0
 21
-903.21366500000011
 31
0.0
  0
TEXT
  5
4EE
  8
HIBINO-BASE
 62
     7
 10
459.0
 20
-928.81022499999995
 30
0.0
 40
18.712959999999999
  1
TITLE
 41
0.8
 11
459.0
 21
-910.09726499999999
 31
0.0
 73
     3
  0
TEXT
  5
4EF
  8
HIBINO-BASE
 62
     7
 10
600.68389999999999
 20
-1189.493504999999
 30
0.0
 40
37.425840000000001
  1
ヒビノ株式会社
 41
0.8
 11
600.68389999999999
 21
-1152.0676649999989
 31
0.0
 73
     3
  0
LINE
  5
4F0
  8
HIBINO-BASE
  6
CONTINUOUS
 62
     7
 10
100.0
 20
-1028.2136649999991
 30
0.0
 11
1000.0
 21
-1028.2136649999991
 31
0.0
  0
TEXT
  5
4F1
  8
HIBINO-BASE
 62
     7
 10
584.0
 20
-1053.2470249999999
 30
0.0
 40
18.712959999999999
  1
DRAWN
 41
0.8
 11
584.0
 21
-1034.5340650000001
 31
0.0
 73
     3
  0
TEXT
  5
4F2
  8
HIBINO-BASE
 62
     7
 10
334.0
 20
-1053.2470249999999
 30
0.0
 40
18.712959999999999
  1
DATE
 41
0.8
 11
334.0
 21
-1034.5340650000001
 31
0.0
 73
     3
  0
TEXT
  5
4F3
  8
HIBINO-BASE
 62
     7
 10
111.0
 20
-1053.1382249999999
 30
0.0
 40
16.93335999999999
  1
図面サイズ
 41
0.8
 11
111.0
 21
-1036.204864999999
 31
0.0
 73
     3
  0
TEXT
  5
4F4
  8
HIBINO-BASE
 62
     7
 10
234.0
 20
-1053.2470249999999
 30
0.0
 40
18.712959999999999
  1
SCALE
 41
0.8
 11
234.0
 21
-1034.5340650000001
 31
0.0
 73
     3
  0
TEXT
  5
4F5
  8
HIBINO-BASE
 62
     7
 10
459.0
 20
-1053.2470249999999
 30
0.0
 40
18.712959999999999
  1
DESIGN
 41
0.8
 11
459.0
 21
-1034.5340650000001
 31
0.0
 73
     3
  0
TEXT
  5
4F6
  8
HIBINO-BASE
 62
     7
 10
834.0
 20
-1053.2470249999999
 30
0.0
 40
18.712959999999999
  1
DRAWING NO.
 41
0.8
 11
834.0
 21
-1034.5340650000001
 31
0.0
 73
     3
  0
TEXT
  5
4F7
  8
HIBINO-BASE
 62
     7
 10
709.0
 20
-1053.2470249999999
 30
0.0
 40
18.712959999999999
  1
CHECK
 41
0.8
 11
709.0
 21
-1034.5340650000001
 31
0.0
 73
     3
  0
LINE
  5
4F8
  8
HIBINO-BASE
  6
CONTINUOUS
 62
     7
 10
243.75
 20
-1115.713665
 30
0.0
 11
281.25
 21
-1078.213665
 31
0.0
  0
TEXT
  5
4F9
  8
HIBINO-BASE
 62
     7
 10
237.5
 20
-1093.6775250000001
 30
0.0
 40
22.577760000000001
  1
1
 41
0.8
 11
237.5
 21
-1071.0997649999999
 31
0.0
 73
     3
  0
LINE
  5
4FA
  8
HIBINO-BASE
  6
CONTINUOUS
 62
     7
 10
225.0
 20
-1128.213665
 30
0.0
 11
225.0
 21
-1028.2136649999991
 31
0.0
  0
LINE
  5
4FB
  8
HIBINO-BASE
  6
CONTINUOUS
 62
     7
 10
325.0
 20
-1128.213665
 30
0.0
 11
325.0
 21
-1028.2136649999991
 31
0.0
  0
LINE
  5
4FC
  8
HIBINO-BASE
  6
CONTINUOUS
 62
     7
 10
575.0
 20
-1028.2136649999991
 30
0.0
 11
575.0
 21
-1128.213665
 31
0.0
  0
LINE
  5
4FD
  8
HIBINO-BASE
  6
CONTINUOUS
 62
     7
 10
825.0
 20
-1028.2136649999991
 30
0.0
 11
825.0
 21
-1128.213665
 31
0.0
  0
LINE
  5
4FE
  8
HIBINO-BASE
  6
CONTINUOUS
 62
     7
 10
700.0
 20
-1128.213665
 30
0.0
 11
700.0
 21
-1028.2136649999991
 31
0.0
  0
TEXT
  5
4FF
  8
HIBINO-BASE
 62
     7
 10
139.1089000000002
 20
-1100.6891049999999
 30
0.0
 40
33.86663999999999
  1
A4
 41
0.8
 11
139.1089000000002
 21
-1066.8224649999991
 31
0.0
 73
     3
  0
TEXT
  5
500
  8
HIBINO-BASE
 62
     7
 10
333.5653999999999
 20
-1100.086824999999
 30
0.0
 40
18.712959999999999
  1
'01.10.
 41
0.8
 11
333.5653999999999
 21
-1081.3738649999989
 31
0.0
 73
     3
  0
TEXT
  5
501
  8
HIBINO-BASE
 62
     7
 10
275.0
 20
-1112.4275250000001
 30
0.0
 40
22.577760000000001
  1
10
 41
0.8
 11
275.0
 21
-1089.8497649999999
 31
0.0
 73
     3
  0
TEXT
  5
502
  8
HIBINO-BASE
 62
     7
 10
590.05810011034646
 20
-1100.086824999999
 30
0.0
 40
18.712959999999999
  1
N.Sasaki
 41
0.8
 11
590.05810011034646
 21
-1081.3738649999989
 31
0.0
 73
     3
  0
LINE
  5
503
  8
SIED-DOWN-18_5
  6
STYLE_01
 62
     7
 10
82.259764101440368
 20
-802.08229045787914
 30
0.0
 11
275.15954355932757
 21
-718.20706855994035
 31
0.0
  0
LINE
  5
504
  8
SIED-DOWN-18_5
  6
STYLE_01
 62
     7
 10
-38.801955827255838
 20
-440.26694854319351
 30
0.0
 11
0.0000000000004547
 21
-430.95142504600437
 31
0.0
  0
LINE
  5
505
  8
SIED-DOWN-18_5
  6
STYLE_01
 62
     7
 10
-36.540976865490869
 20
-443.43785578661129
 30
0.0
 11
0.0000000000004547
 21
-552.64732386844128
 31
0.0
  0
LINE
  5
506
  8
SIED-DOWN-18_5
  6
STYLE_01
 62
     7
 10
64.479371112915501
 20
-745.35585072072956
 30
0.0
 11
82.157170631203371
 21
-798.18922431541921
 31
0.0
  0
LINE
  5
507
  8
SIED-DOWN-18_5
  6
STYLE_01
 62
     7
 10
69.333376272800251
 20
-799.8015954234354
 30
0.0
 11
51.496146914166282
 21
-746.49173626228924
 31
0.0
  0
LINE
  5
508
  8
SIED-DOWN-18_5
  6
STYLE_01
 62
     7
 10
0.0000000000004547
 20
-592.58597634072362
 30
0.0
 11
-47.752863569355902
 21
-449.86771106307538
 31
0.0
  0
LINE
  5
509
  8
SIED-DOWN-18_5
  6
STYLE_01
 62
     7
 10
96.032781879323466
 20
-796.09361112620365
 30
0.0
 11
78.641589669090521
 21
-744.11681648330796
 31
0.0
  0
LINE
  5
50A
  8
SIED-DOWN-18_5
  6
STYLE_01
 62
     7
 10
0.0000000000004547
 20
-509.08187999310093
 30
0.0
 11
-24.198257558682371
 21
-436.76091150288551
 31
0.0
  0
LINE
  5
50B
  8
SIED-DOWN-18_5
  6
STYLE_01
 62
     7
 10
108.3387565851162
 20
-741.51864964825882
 30
0.0
 11
122.7170852529479
 21
-784.49094432718152
 31
0.0
  0
ARC
  5
50C
  8
SIED-DOWN-18_5
  6
STYLE_01
 62
     7
 10
71.742118357023614
 20
-798.99564159616625
 30
0.0
 40
2.5400000000001488
 50
198.50000000000401
 51
288.50000000000068
  0
LINE
  5
50D
  8
SIED-DOWN-18_5
  6
STYLE_01
 62
     7
 10
82.157170631203371
 20
-798.18922431541921
 30
0.0
 11
72.548072184292764
 21
-801.40438368039031
 31
0.0
  0
ARC
  5
50E
  8
SIED-DOWN-18_5
  6
STYLE_01
 62
     7
 10
80.993725707495742
 20
-799.17063713440155
 30
0.0
 40
3.1749999999997911
 50
198.5000000000019
 51
293.50000000000068
  0
LINE
  5
50F
  8
SIED-DOWN-18_5
  6
STYLE_01
 62
     7
 10
77.982798102216307
 20
-800.17807941848764
 30
0.0
 11
77.804621859852872
 21
-799.64556676221775
 31
0.0
  0
ARC
  5
510
  8
SIED-DOWN-18_5
  6
STYLE_01
 62
     7
 10
-45.34412148513276
 20
-449.06175723580623
 30
0.0
 40
2.5399999999995728
 50
108.4999999999975
 51
198.5000000000056
  0
LINE
  5
511
  8
SIED-DOWN-18_5
  6
STYLE_01
 62
     7
 10
-46.150075312401448
 20
-446.65301515158279
 30
0.0
 11
-36.540976865490869
 21
-443.43785578661129
 31
0.0
  0
ARC
  5
512
  8
SIED-DOWN-18_5
  6
STYLE_01
 62
     7
 10
-38.060774273925531
 20
-443.3542432930542
 30
0.0
 40
3.174999999999863
 50
103.4999999999939
 51
198.4999999999942
  0
LINE
  5
513
  8
SIED-DOWN-18_5
  6
STYLE_01
 62
     7
 10
-41.071701879204973
 20
-444.36168557713989
 30
0.0
 11
-40.893525636841339
 21
-444.89419823341012
 31
0.0
  0
LINE
  5
514
  8
SIED-DOWN-18_5
  6
STYLE_01
 62
     7
 10
223.9829911999999
 20
-556.10802983866802
 30
0.0
 11
276.90719060813672
 21
-714.28178877497271
 31
0.0
  0
ARC
  5
515
  8
SIED-DOWN-18_5
  6
STYLE_01
 62
     7
 10
273.89152138458121
 20
-715.29081758234065
 30
0.0
 40
3.1799999999999771
 50
293.5000026634379
 51
18.49999999999687
  0
LINE
  5
516
  8
SIED-DOWN-18_5
  6
CONTINUOUS
 62
     7
 10
1.534724200000255
 20
-749.98790959999974
 30
0.0
 11
-170.0
 21
-749.98790959999974
 31
0.0
  0
LINE
  5
517
  8
SIED-DOWN-18_5
  6
CONTINUOUS
 62
     7
 10
70.993725707495742
 20
-802.34563713439286
 30
0.0
 11
-170.0
 21
-802.34563713439286
 31
0.0
  0
LINE
  5
518
  8
SIED-DOWN-18_5
  6
CONTINUOUS
 62
     7
 10
-150.0
 20
-802.34563713439286
 30
0.0
 11
-150.0
 21
-860.27777777777771
 31
0.0
  0
LINE
  5
519
  8
SIED-DOWN-18_5
 62
     7
 10
-150.0
 20
-749.98790959999974
 30
0.0
 11
-143.2996020484976
 21
-774.99413518593724
 31
0.0
  0
LINE
  5
51A
  8
SIED-DOWN-18_5
 62
     7
 10
-150.0
 20
-749.98790959999974
 30
0.0
 11
-156.7003979515024
 21
-774.99413518593724
 31
0.0
  0
LINE
  5
51B
  8
SIED-DOWN-18_5
 62
     7
 10
-150.0
 20
-802.34563713439286
 30
0.0
 11
-156.7003979515024
 21
-777.33941154845536
 31
0.0
  0
LINE
  5
51C
  8
SIED-DOWN-18_5
 62
     7
 10
-150.0
 20
-802.34563713439286
 30
0.0
 11
-143.2996020484976
 21
-777.33941154845536
 31
0.0
  0
LINE
  5
51D
  8
SIED-DOWN-18_5
  6
CONTINUOUS
 62
     7
 10
-150.0
 20
-749.98790959999974
 30
0.0
 11
-150.0
 21
-802.34563713439286
 31
0.0
  0
TEXT
  5
51E
  8
SIED-DOWN-18_5
 62
     7
 10
-162.0555555555556
 20
-860.27777777777771
 30
0.0
 40
28.222222222222221
  1
52
 50
90.0
 41
0.8
 11
-190.2777777777778
 21
-860.27777777777771
 31
0.0
 73
     3
  0
TEXT
  5
51F
  8
SIED-DOWN-18_5
 62
     7
 10
-199.59999999999999
 20
-848.8125
 30
0.0
 40
25.399999999999999
  1
注1
 50
90.0
 41
0.8
 11
-225.0
 21
-848.8125
 31
0.0
 73
     3
  0
LINE
  5
520
  8
SIDE-UP18_5
  6
STYLE_01
 62
     7
 10
-39.005714535192297
 20
-678.14419144398948
 30
0.0
 11
0.0000000000004547
 21
-687.50863306891438
 31
0.0
  0
LINE
  5
521
  8
SIDE-UP18_5
  6
STYLE_01
 62
     7
 10
82.05600539350371
 20
-316.3288495293038
 30
0.0
 11
274.95578485138998
 21
-400.20407142724542
 31
0.0
  0
LINE
  5
522
  8
SIDE-UP18_5
  6
STYLE_01
 62
     7
 10
81.953403863728454
 20
-320.22193975918458
 30
0.0
 11
64.270619960511794
 21
-373.07021011015991
 31
0.0
  0
LINE
  5
523
  8
SIDE-UP18_5
  6
STYLE_01
 62
     7
 10
0.0000000000004547
 20
-565.15484553230385
 30
0.0
 11
-36.744743632965537
 21
-674.97330828799215
 31
0.0
  0
LINE
  5
524
  8
SIDE-UP18_5
  6
STYLE_01
 62
     7
 10
-47.9566303368306
 20
-668.5434530115283
 30
0.0
 11
0.0000000000004547
 21
-525.21619306002162
 31
0.0
  0
LINE
  5
525
  8
SIDE-UP18_5
  6
STYLE_01
 62
     7
 10
51.287395761762582
 20
-371.93432456859978
 30
0.0
 11
69.129609505325334
 21
-318.60956865116822
 31
0.0
  0
LINE
  5
526
  8
SIDE-UP18_5
  6
STYLE_01
 62
     7
 10
-24.402016266619508
 20
-681.65022848429737
 30
0.0
 11
0.0000000000004547
 21
-608.72028940764335
 31
0.0
  0
LINE
  5
527
  8
SIDE-UP18_5
  6
STYLE_01
 62
     7
 10
78.432838516686843
 20
-374.3092443475818
 30
0.0
 11
95.829023171387718
 21
-322.31752886097979
 31
0.0
  0
LINE
  5
528
  8
SIDE-UP18_5
  6
STYLE_01
 62
     7
 10
122.51332654501169
 20
-333.92019566000198
 30
0.0
 11
108.13000543271249
 21
-376.90741118263139
 31
0.0
  0
ARC
  5
529
  8
SIDE-UP18_5
  6
STYLE_01
 62
     7
 10
-45.54788825260745
 20
-669.34940683879745
 30
0.0
 40
2.539999999999933
 50
161.49999999999429
 51
251.4999999999975
  0
LINE
  5
52A
  8
SIDE-UP18_5
  6
STYLE_01
 62
     7
 10
-36.744743632965537
 20
-674.97330828799215
 30
0.0
 11
-46.353842079876372
 21
-671.75814892302083
 31
0.0
  0
ARC
  5
52B
  8
SIDE-UP18_5
  6
STYLE_01
 62
     7
 10
-38.264541041400221
 20
-675.05692078154948
 30
0.0
 40
3.1749999999996459
 50
161.50000000000571
 51
256.50000000000392
  0
LINE
  5
52C
  8
SIDE-UP18_5
  6
STYLE_01
 62
     7
 10
-41.27546864667967
 20
-674.04947849746361
 30
0.0
 11
-41.097292404316249
 21
-673.51696584119338
 31
0.0
  0
ARC
  5
52D
  8
SIDE-UP18_5
  6
STYLE_01
 62
     7
 10
71.538351589548697
 20
-319.41552247843742
 30
0.0
 40
2.5400000000001488
 50
71.499999999995978
 51
161.49999999999599
  0
LINE
  5
52E
  8
SIDE-UP18_5
  6
STYLE_01
 62
     7
 10
72.344305416817861
 20
-317.00678039421359
 30
0.0
 11
81.953403863728454
 21
-320.22193975918458
 31
0.0
  0
ARC
  5
52F
  8
SIDE-UP18_5
  6
STYLE_01
 62
     7
 10
80.789958940020824
 20
-319.24052694020219
 30
0.0
 40
3.1750000000000922
 50
66.49999999999919
 51
161.4999999999979
  0
LINE
  5
530
  8
SIDE-UP18_5
  6
STYLE_01
 62
     7
 10
77.779031334741376
 20
-318.23308465611609
 30
0.0
 11
77.600855092377955
 21
-318.76559731238581
 31
0.0
  0
LINE
  5
531
  8
SIDE-UP18_5
  6
STYLE_01
 62
     7
 10
276.70343190019912
 20
-404.12935121221301
 30
0.0
 11
223.9829911999999
 21
-561.69413956207666
 31
0.0
  0
ARC
  5
532
  8
SIDE-UP18_5
  6
STYLE_01
 62
     7
 10
273.68776267664401
 20
-403.12032240484518
 30
0.0
 40
3.1799999999997222
 50
341.50000000000318
 51
66.499997336569606
  0
LINE
  5
533
  8
SIDE-UP18_5
  6
CONTINUOUS
 62
     7
 10
70.78995894002081
 20
-316.06552694020201
 30
0.0
 11
-70.000000000000014
 21
-316.06552694020201
 31
0.0
  0
LINE
  5
534
  8
SIDE-UP18_5
  6
CONTINUOUS
 62
     7
 10
1.257991200000105
 20
-368.44434959999961
 30
0.0
 11
-70.000000000000014
 21
-368.44434959999961
 31
0.0
  0
LINE
  5
535
  8
SIDE-UP18_5
  6
CONTINUOUS
 62
     7
 10
-50.000000000000021
 20
-316.06552694020201
 30
0.0
 11
-50.000000000000021
 21
-264.72222222222217
 31
0.0
  0
LINE
  5
536
  8
SIDE-UP18_5
 62
     7
 10
-50.000000000000021
 20
-316.06552694020201
 30
0.0
 11
-43.29960204849759
 21
-341.07175252613962
 31
0.0
  0
LINE
  5
537
  8
SIDE-UP18_5
 62
     7
 10
-50.000000000000021
 20
-316.06552694020201
 30
0.0
 11
-56.700397951502438
 21
-341.07175252613962
 31
0.0
  0
LINE
  5
538
  8
SIDE-UP18_5
 62
     7
 10
-50.000000000000021
 20
-368.44434959999961
 30
0.0
 11
-56.700397951502438
 21
-343.43812401406211
 31
0.0
  0
LINE
  5
539
  8
SIDE-UP18_5
 62
     7
 10
-50.000000000000021
 20
-368.44434959999961
 30
0.0
 11
-43.29960204849759
 21
-343.43812401406211
 31
0.0
  0
LINE
  5
53A
  8
SIDE-UP18_5
  6
CONTINUOUS
 62
     7
 10
-50.000000000000021
 20
-316.06552694020201
 30
0.0
 11
-50.000000000000021
 21
-368.44434959999961
 31
0.0
  0
TEXT
  5
53B
  8
SIDE-UP18_5
 62
     7
 10
-62.05555555555555
 20
-300.0
 30
0.0
 40
28.222222222222221
  1
52
 50
90.0
 41
0.8
 11
-90.277777777777786
 21
-300.0
 31
0.0
 73
     3
  0
TEXT
  5
53C
  8
SIDE-UP18_5
 62
     7
 10
-99.599999999999994
 20
-305.73419019097071
 30
0.0
 40
25.399999999999999
  1
注1
 50
90.0
 41
0.8
 11
-125.0
 21
-305.73419019097071
 31
0.0
 73
     3
  0
LINE
  5
53D
  8
SIDE-UP18_5
  6
CONTINUOUS
 62
     7
 10
-48.087888252606668
 20
-679.34940683879756
 30
0.0
 11
-48.087888252606668
 21
-920.0
 31
0.0
  0
LINE
  5
53E
  8
SIDE-UP18_5
  6
CONTINUOUS
 62
     7
 10
0.0
 20
-384.72088009999987
 30
0.0
 11
0.0
 21
-920.0
 31
0.0
  0
LINE
  5
53F
  8
SIDE-UP18_5
  6
CONTINUOUS
 62
     7
 10
0.0
 20
-900.0
 30
0.0
 11
-48.087888252606668
 21
-900.0
 31
0.0
  0
LINE
  5
540
  8
SIDE-UP18_5
 62
     7
 10
-48.087888252606668
 20
-900.0
 30
0.0
 11
-73.094113838544189
 21
-906.70039795150228
 31
0.0
  0
LINE
  5
541
  8
SIDE-UP18_5
 62
     7
 10
-48.087888252606668
 20
-900.0
 30
0.0
 11
-73.094113838544189
 21
-893.2996020484976
 31
0.0
  0
LINE
  5
542
  8
SIDE-UP18_5
  6
CONTINUOUS
 62
     7
 10
-48.087888252606668
 20
-900.0
 30
0.0
 11
-110.2777777777778
 21
-900.0
 31
0.0
  0
LINE
  5
543
  8
SIDE-UP18_5
 62
     7
 10
0.0
 20
-900.0
 30
0.0
 11
25.0062255859375
 21
-893.2996020484976
 31
0.0
  0
LINE
  5
544
  8
SIDE-UP18_5
 62
     7
 10
0.0
 20
-900.0
 30
0.0
 11
25.0062255859375
 21
-906.70039795150228
 31
0.0
  0
LINE
  5
545
  8
SIDE-UP18_5
  6
CONTINUOUS
 62
     7
 10
0.0
 20
-900.0
 30
0.0
 11
50.0
 21
-900.0
 31
0.0
  0
TEXT
  5
546
  8
SIDE-UP18_5
 62
     7
 10
-110.2777777777778
 20
-887.94444444444434
 30
0.0
 40
28.222222222222221
  1
48
 41
0.8
 11
-110.2777777777778
 21
-859.72222222222206
 31
0.0
 73
     3
  0
TEXT
  5
547
  8
SIDE-UP18_5
 62
     7
 10
-123.8124999999999
 20
-850.39999999999986
 30
0.0
 40
25.399999999999999
  1
注1
 41
0.8
 11
-123.8124999999999
 21
-825.0
 31
0.0
 73
     3
  0
ARC
  5
548
  8
TOP22
  6
STYLE_01
 62
     7
 10
-1686.926399017098
 20
2944.0855227897691
 30
0.0
 40
3345.2985259703141
 50
289.87458367191772
 51
291.32050166249007
  0
ARC
  5
549
  8
TOP22
  6
STYLE_01
 62
     7
 10
-1686.926399017098
 20
2944.0855227897691
 30
0.0
 40
3345.2985259703141
 50
293.15025551032778
 51
294.12541632808222
  0
ARC
  5
54A
  8
TOP22
  6
STYLE_01
 62
     7
 10
-1685.9898825335581
 20
2941.767563153353
 30
0.0
 40
3345.2985259703141
 50
289.78477805530872
 51
291.43372306614401
  0
ARC
  5
54B
  8
TOP22
  6
STYLE_01
 62
     7
 10
-1685.9898825335581
 20
2941.767563153353
 30
0.0
 40
3345.2985259703141
 50
293.12792185185151
 51
294.21522194469122
  0
ARC
  5
54C
  8
TOP22
  6
STYLE_01
 62
     7
 10
-457.40106959184283
 20
50.131722386892747
 30
0.0
 40
19.999999999999851
 50
44.70000000000001
 51
111.9999999999997
  0
LINE
  5
54D
  8
TOP22
  6
STYLE_01
 62
     7
 10
-553.64667034998911
 20
-206.0604305084604
 30
0.0
 11
-555.02138444391176
 21
-202.65789372738641
 31
0.0
  0
ARC
  5
54E
  8
TOP22
  6
STYLE_01
 62
     7
 10
-553.90019264236878
 20
-190.2082781130737
 30
0.0
 40
12.49999999999979
 50
207.30000000000121
 51
289.87458367191181
  0
LINE
  5
54F
  8
TOP22
  6
STYLE_01
 62
     7
 10
-577.45485197052813
 20
-171.82588548696791
 30
0.0
 11
-565.00790805055533
 21
-195.9413975441272
 31
0.0
  0
LINE
  5
550
  8
TOP22
  6
STYLE_01
 62
     7
 10
-513.63362230171106
 20
48.982991200000228
 30
0.0
 11
-464.89320146016092
 21
68.675399478228655
 31
0.0
  0
LINE
  5
551
  8
TOP22
  6
STYLE_01
 62
     7
 10
-313.86435813817928
 20
-109.1820878834953
 30
0.0
 11
-315.23907223210171
 21
-105.77955110242161
 31
0.0
  0
ARC
  5
552
  8
TOP22
  6
STYLE_01
 62
     7
 10
-324.69381981424482
 20
-97.602892361960372
 30
0.0
 40
12.500000000000069
 50
294.12541632808239
 51
16.69999999999828
  0
LINE
  5
553
  8
TOP22
  6
STYLE_01
 62
     7
 10
-312.72103862867829
 20
-94.010885863839363
 30
0.0
 11
-324.07577642397922
 21
-56.163573751870217
 31
0.0
  0
LINE
  5
554
  8
TOP22
  6
STYLE_01
 62
     7
 10
-443.18508011438308
 20
64.199616443102968
 30
0.0
 11
-324.07577642397922
 21
-56.163573751870217
 31
0.0
  0
LINE
  5
555
  8
TOP22
  6
CONTINUOUS
 62
     7
 10
-543.64667034998911
 20
-206.0604305084604
 30
0.0
 11
-205.0
 21
-206.0604305084604
 31
0.0
  0
LINE
  5
556
  8
TOP22
  6
CONTINUOUS
 62
     7
 10
-500.30000000000013
 20
-175.0000000000002
 30
0.0
 11
-205.0
 21
-175.0000000000002
 31
0.0
  0
LINE
  5
557
  8
TOP22
  6
CONTINUOUS
 62
     7
 10
-225.0
 20
-175.0000000000002
 30
0.0
 11
-225.0
 21
-206.0604305084604
 31
0.0
  0
LINE
  5
558
  8
TOP22
 62
     7
 10
-225.0
 20
-206.0604305084604
 30
0.0
 11
-218.29960204849749
 21
-231.06665609439801
 31
0.0
  0
LINE
  5
559
  8
TOP22
 62
     7
 10
-225.0
 20
-206.0604305084604
 30
0.0
 11
-231.7003979515024
 21
-231.06665609439801
 31
0.0
  0
LINE
  5
55A
  8
TOP22
  6
CONTINUOUS
 62
     7
 10
-225.0
 20
-206.0604305084604
 30
0.0
 11
-225.0
 21
-260.27777777777771
 31
0.0
  0
LINE
  5
55B
  8
TOP22
 62
     7
 10
-225.0
 20
-175.0000000000002
 30
0.0
 11
-231.7003979515024
 21
-149.99377441406261
 31
0.0
  0
LINE
  5
55C
  8
TOP22
 62
     7
 10
-225.0
 20
-175.0000000000002
 30
0.0
 11
-218.29960204849749
 21
-149.99377441406261
 31
0.0
  0
LINE
  5
55D
  8
TOP22
  6
CONTINUOUS
 62
     7
 10
-225.0
 20
-175.0000000000002
 30
0.0
 11
-225.0
 21
-125.0000000000002
 31
0.0
  0
TEXT
  5
55E
  8
TOP22
 62
     7
 10
-237.0555555555556
 20
-260.27777777777783
 30
0.0
 40
28.222222222222221
  1
31
 50
90.0
 41
0.8
 11
-265.27777777777789
 21
-260.27777777777783
 31
0.0
 73
     3
  0
TEXT
  5
55F
  8
TOP22
 62
     7
 10
-274.60000000000002
 20
-273.8125
 30
0.0
 40
25.399999999999999
  1
注1
 50
90.0
 41
0.8
 11
-300.0
 21
-273.8125
 31
0.0
 73
     3
  0
LINE
  5
560
  8
TOP22
  6
CONTINUOUS
 62
     7
 10
-370.59999999999991
 20
-129.5168250860481
 30
0.0
 11
-370.59999999999991
 21
-170.0
 31
0.0
  0
LINE
  5
561
  8
TOP22
  6
CONTINUOUS
 62
     7
 10
-312.19381981424289
 20
-107.6028923619603
 30
0.0
 11
-312.19381981424289
 21
-170.0
 31
0.0
  0
LINE
  5
562
  8
TOP22
  6
CONTINUOUS
 62
     7
 10
-312.19381981424289
 20
-150.0
 30
0.0
 11
-264.72222222222217
 21
-150.0
 31
0.0
  0
LINE
  5
563
  8
TOP22
 62
     7
 10
-370.59999999999991
 20
-150.0
 30
0.0
 11
-345.5937744140623
 21
-143.29960204849749
 31
0.0
  0
LINE
  5
564
  8
TOP22
 62
     7
 10
-370.59999999999991
 20
-150.0
 30
0.0
 11
-345.5937744140623
 21
-156.7003979515024
 31
0.0
  0
LINE
  5
565
  8
TOP22
 62
     7
 10
-312.19381981424289
 20
-150.0
 30
0.0
 11
-337.20004540018039
 21
-156.7003979515024
 31
0.0
  0
LINE
  5
566
  8
TOP22
 62
     7
 10
-312.19381981424289
 20
-150.0
 30
0.0
 11
-337.20004540018039
 21
-143.29960204849749
 31
0.0
  0
LINE
  5
567
  8
TOP22
  6
CONTINUOUS
 62
     7
 10
-370.59999999999991
 20
-150.0
 30
0.0
 11
-312.19381981424289
 21
-150.0
 31
0.0
  0
TEXT
  5
568
  8
TOP22
 62
     7
 10
-300.0
 20
-137.9444444444444
 30
0.0
 40
28.222222222222221
  1
58
 41
0.8
 11
-300.0
 21
-109.7222222222222
 31
0.0
 73
     3
  0
TEXT
  5
569
  8
TOP22
 62
     7
 10
-273.8125
 20
-100.40000000000001
 30
0.0
 40
25.399999999999999
  1
注1
 41
0.8
 11
-273.8125
 21
-75.0
 31
0.0
 73
     3
  0
LINE
  5
56A
  8
BRACKET
  6
STYLE_01
 62
     7
 10
-501.55000000000013
 20
96.986704162284681
 30
0.0
 11
-501.55000000000013
 21
103.9829912
 31
0.0
  0
LINE
  5
56B
  8
BRACKET
  6
STYLE_01
 62
     7
 10
-519.05000000000007
 20
96.986704162284681
 30
0.0
 11
-519.05000000000007
 21
103.9829912
 31
0.0
  0
ARC
  5
56C
  8
BRACKET
  6
STYLE_01
 62
     7
 10
-510.30000000000013
 20
172.73299120000109
 30
0.0
 40
76.250000000000753
 50
245.5076213631325
 51
294.49237863686687
  0
LINE
  5
56D
  8
BRACKET
  6
STYLE_01
 62
     7
 10
-500.55000000000041
 20
82.98299119999956
 30
0.0
 11
-500.55000000000041
 21
91.982991200000214
 31
0.0
  0
LINE
  5
56E
  8
BRACKET
  6
STYLE_01
 62
     7
 10
-499.8000000000003
 20
94.482991199999987
 30
0.0
 11
-499.8000000000003
 21
97.209402169816741
 31
0.0
  0
LINE
  5
56F
  8
BRACKET
  6
STYLE_01
 62
     7
 10
-500.80000000000013
 20
91.982991200000214
 30
0.0
 11
-500.80000000000013
 21
94.482991199999987
 31
0.0
  0
LINE
  5
570
  8
BRACKET
  6
STYLE_01
 62
     7
 10
-505.42500000000013
 20
82.982991200000242
 30
0.0
 11
-505.42500000000013
 21
91.982991200000214
 31
0.0
  0
LINE
  5
571
  8
BRACKET
  6
STYLE_01
 62
     7
 10
-515.17500000000007
 20
82.982991200000242
 30
0.0
 11
-515.17500000000007
 21
91.982991200000214
 31
0.0
  0
LINE
  5
572
  8
BRACKET
  6
STYLE_01
 62
     7
 10
-519.80000000000018
 20
91.982991200000214
 30
0.0
 11
-519.80000000000018
 21
94.482991199999987
 31
0.0
  0
LINE
  5
573
  8
BRACKET
  6
STYLE_01
 62
     7
 10
-520.05000000000041
 20
82.982991200000242
 30
0.0
 11
-520.05000000000041
 21
91.982991200000214
 31
0.0
  0
LINE
  5
574
  8
BRACKET
  6
STYLE_01
 62
     7
 10
-520.80000000000007
 20
97.209402169816741
 30
0.0
 11
-520.80000000000007
 21
94.482991199999987
 31
0.0
  0
LINE
  5
575
  8
BRACKET
  6
STYLE_01
 62
     7
 10
-520.05000000000041
 20
91.982991200000214
 30
0.0
 11
-500.55000000000041
 21
91.982991200000214
 31
0.0
  0
LINE
  5
576
  8
BRACKET
  6
STYLE_01
 62
     7
 10
-520.80000000000007
 20
94.482991199999987
 30
0.0
 11
-499.8000000000003
 21
94.482991199999987
 31
0.0
  0
LINE
  5
577
  8
BRACKET
  6
STYLE_01
 62
     7
 10
-520.05000000000041
 20
82.982991200000242
 30
0.0
 11
-500.55000000000041
 21
82.982991200000242
 31
0.0
  0
LINE
  5
578
  8
BRACKET
  6
STYLE_01
 62
     7
 10
-475.8423813513636
 20
106.999893767499
 30
0.0
 11
-475.30000000000013
 21
109.9829911999997
 31
0.0
  0
ARC
  5
579
  8
BRACKET
  6
STYLE_01
 62
     7
 10
-480.7617309018633
 20
107.89432095849919
 30
0.0
 40
4.999999999999905
 50
294.49237863686449
 51
349.69515353123251
  0
LINE
  5
57A
  8
BRACKET
  6
STYLE_01
 62
     7
 10
-545.30000000000018
 20
109.9829911999997
 30
0.0
 11
-544.75761864863625
 21
106.9998937674995
 31
0.0
  0
ARC
  5
57B
  8
BRACKET
  6
STYLE_01
 62
     7
 10
-539.83826909813683
 20
107.89432095849951
 30
0.0
 40
4.9999999999998943
 50
190.3048464687669
 51
245.5076213631329
  0
LINE
  5
57C
  8
BRACKET
  6
STYLE_01
 62
     7
 10
-519.05000000000007
 20
103.9829912
 30
0.0
 11
-501.55000000000013
 21
103.9829912
 31
0.0
  0
LINE
  5
57D
  8
BRACKET
  6
STYLE_01
 62
     7
 10
-545.30000000000018
 20
109.9829911999997
 30
0.0
 11
-475.30000000000013
 21
109.9829911999997
 31
0.0
  0
CIRCLE
  5
57E
  8
BRACKET
  6
STYLE_01
 62
     7
 10
-510.30000000000013
 20
31.83299119999992
 30
0.0
 40
17.25
  0
LINE
  5
57F
  8
BRACKET
  6
STYLE_01
 62
     7
 10
-504.80000000000001
 20
48.182685386742151
 30
0.0
 11
-504.80000000000001
 21
82.982991200000242
 31
0.0
  0
LINE
  5
580
  8
BRACKET
  6
STYLE_01
 62
     7
 10
-515.80000000000018
 20
48.182685386742151
 30
0.0
 11
-515.80000000000018
 21
82.982991200000242
 31
0.0
  0
LINE
  5
581
  8
BRACKET
  6
STYLE_01
 62
     7
 10
279.48299120000041
 20
-603.90108470037205
 30
0.0
 11
279.48299120000041
 21
-513.90108470037262
 31
0.0
  0
LINE
  5
582
  8
BRACKET
  6
STYLE_01
 62
     7
 10
271.48299120000041
 20
-569.4010847003716
 30
0.0
 11
271.48299120000041
 21
-603.90108470037205
 31
0.0
  0
LINE
  5
583
  8
BRACKET
  6
STYLE_01
 62
     7
 10
284.98299120000041
 20
-513.90108470037262
 30
0.0
 11
284.98299120000041
 21
-603.90108470037205
 31
0.0
  0
LINE
  5
584
  8
BRACKET
  6
STYLE_01
 62
     7
 10
271.48299120000041
 20
-603.90108470037205
 30
0.0
 11
284.98299120000041
 21
-603.90108470037205
 31
0.0
  0
LINE
  5
585
  8
BRACKET
  6
STYLE_01
 62
     7
 10
223.1826853867428
 20
-564.40108470037217
 30
0.0
 11
257.98299120000001
 21
-564.40108470037217
 31
0.0
  0
LINE
  5
586
  8
BRACKET
  6
STYLE_01
 62
     7
 10
257.98299120000001
 20
-553.40108470037205
 30
0.0
 11
223.1826853867428
 21
-553.40108470037205
 31
0.0
  0
ARC
  5
587
  8
BRACKET
  6
STYLE_01
 62
     7
 10
206.83299120000041
 20
-558.90108470037205
 30
0.0
 40
17.25
 50
18.592822549426639
 51
341.40717745057339
  0
LINE
  5
588
  8
BRACKET
  6
STYLE_01
 62
     7
 10
223.1826853867428
 20
-553.40108470037205
 30
0.0
 11
223.1826853867428
 21
-564.40108470037217
 31
0.0
  0
LINE
  5
589
  8
BRACKET
  6
STYLE_01
 62
     7
 10
271.48299120000041
 20
-513.90108470037262
 30
0.0
 11
284.98299120000041
 21
-513.90108470037262
 31
0.0
  0
LINE
  5
58A
  8
BRACKET
  6
STYLE_01
 62
     7
 10
266.98299120000001
 20
-549.40108470037205
 30
0.0
 11
269.48299120000001
 21
-549.40108470037205
 31
0.0
  0
LINE
  5
58B
  8
BRACKET
  6
STYLE_01
 62
     7
 10
266.98299120000001
 20
-563.90108470037217
 30
0.0
 11
269.48299120000001
 21
-563.90108470037217
 31
0.0
  0
LINE
  5
58C
  8
BRACKET
  6
STYLE_01
 62
     7
 10
266.98299120000001
 20
-568.40108470037217
 30
0.0
 11
269.48299120000041
 21
-568.40108470037217
 31
0.0
  0
LINE
  5
58D
  8
BRACKET
  6
STYLE_01
 62
     7
 10
257.98299120000001
 20
-558.90108470037205
 30
0.0
 11
266.98299120000001
 21
-558.90108470037205
 31
0.0
  0
LINE
  5
58E
  8
BRACKET
  6
STYLE_01
 62
     7
 10
257.98299120000001
 20
-550.45733701347433
 30
0.0
 11
266.98299120000001
 21
-550.45733701347433
 31
0.0
  0
LINE
  5
58F
  8
BRACKET
  6
STYLE_01
 62
     7
 10
257.98299120000001
 20
-567.34483238727012
 30
0.0
 11
266.98299120000001
 21
-567.34483238727012
 31
0.0
  0
LINE
  5
590
  8
BRACKET
  6
STYLE_01
 62
     7
 10
257.98299120000001
 20
-550.45733701347433
 30
0.0
 11
257.98299120000001
 21
-567.34483238727012
 31
0.0
  0
LINE
  5
591
  8
BRACKET
  6
STYLE_01
 62
     7
 10
266.98299120000001
 20
-549.40108470037205
 30
0.0
 11
266.98299120000001
 21
-568.40108470037217
 31
0.0
  0
LINE
  5
592
  8
BRACKET
  6
STYLE_01
 62
     7
 10
271.48299120000041
 20
-513.90108470037262
 30
0.0
 11
271.48299120000041
 21
-548.40108470037205
 31
0.0
  0
LINE
  5
593
  8
BRACKET
  6
STYLE_01
 62
     7
 10
271.6158654928285
 20
-549.90108470037251
 30
0.0
 11
279.48299120000041
 21
-549.90108470037251
 31
0.0
  0
LINE
  5
594
  8
BRACKET
  6
STYLE_01
 62
     7
 10
271.6158654928285
 20
-567.90108470037217
 30
0.0
 11
279.48299120000041
 21
-567.90108470037217
 31
0.0
  0
LINE
  5
595
  8
BRACKET
  6
STYLE_01
 62
     7
 10
271.48299120000041
 20
-548.40108470037205
 30
0.0
 11
269.48299120000001
 21
-548.40108470037205
 31
0.0
  0
LINE
  5
596
  8
BRACKET
  6
STYLE_01
 62
     7
 10
269.48299120000041
 20
-569.4010847003716
 30
0.0
 11
271.48299120000041
 21
-569.4010847003716
 31
0.0
  0
LINE
  5
597
  8
BRACKET
  6
STYLE_01
 62
     7
 10
269.48299120000001
 20
-548.40108470037205
 30
0.0
 11
269.48299120000001
 21
-569.4010847003716
 31
0.0
  0
ARC
  5
598
  8
BRACKET
  6
STYLE_01
 62
     7
 10
161.4829911999791
 20
-558.90108470037308
 30
0.0
 40
110.5000000000211
 50
354.54737801218897
 51
5.4526219878119937
  0
LINE
  5
599
  8
BRACKET
  6
STYLE_06
 62
     7
 10
-510.30000000000013
 20
31.83299119999992
 30
0.0
 11
-406.53273589550997
 21
-225.0000000000002
 31
0.0
  0
LINE
  5
59A
  8
BRACKET
  6
STYLE_06
 62
     7
 10
-614.06726410449028
 20
-225.0000000000002
 30
0.0
 11
-510.30000000000013
 21
31.83299119999992
 31
0.0
  0
LINE
  5
59B
  8
BRACKET
  6
STYLE_06
 62
     7
 10
-510.30000000000013
 20
-225.0000000000002
 30
0.0
 11
-510.30000000000013
 21
109.9829911999997
 31
0.0
  0
LINE
  5
59C
  8
BRACKET
  6
STYLE_06
 62
     7
 10
-49.999999999999559
 20
-558.90108470037205
 30
0.0
 11
279.48299120000041
 21
-558.90108470037205
 31
0.0
  0
LINE
  5
59D
  8
BRACKET
  6
STYLE_06
 62
     7
 10
-49.999999999999559
 20
-644.83620144960958
 30
0.0
 11
206.83299120000041
 21
-558.90108470037205
 31
0.0
  0
LINE
  5
59E
  8
BRACKET
  6
STYLE_06
 62
     7
 10
-49.999999999999559
 20
-472.96596795113521
 30
0.0
 11
206.83299120000041
 21
-558.90108470037205
 31
0.0
  0
INSERT
  5
59F
  8
PATTERN_FILL
 62
     7
  2
*U0
 10
100.0
 20
140.0
 30
0.0
  0
INSERT
  5
5A0
  8
PATTERN_FILL
 62
     7
  2
*U1
 10
100.0
 20
140.0
 30
0.0
  0
LINE
  5
5A1
  8
SPEC
  6
CONTINUOUS
 62
     7
 10
-725.0
 20
1371.786335
 30
0.0
 11
750.0
 21
1371.786335
 31
0.0
  0
LINE
  5
5A2
  8
SPEC
  6
CONTINUOUS
 62
     7
 10
-725.0
 20
1334.286335
 30
0.0
 11
750.0
 21
1334.286335
 31
0.0
  0
LINE
  5
5A3
  8
SPEC
  6
CONTINUOUS
 62
     7
 10
-724.99999999999955
 20
1259.2826699999989
 30
0.0
 11
750.0
 21
1259.2826699999989
 31
0.0
  0
LINE
  5
5A4
  8
SPEC
  6
CONTINUOUS
 62
     7
 10
-724.99999999999955
 20
1221.779004999999
 30
0.0
 11
750.0
 21
1221.779004999999
 31
0.0
  0
LINE
  5
5A5
  8
SPEC
  6
CONTINUOUS
 62
     7
 10
-724.99999999999955
 20
1184.279004999999
 30
0.0
 11
750.0
 21
1184.279004999999
 31
0.0
  0
LINE
  5
5A6
  8
SPEC
  6
CONTINUOUS
 62
     7
 10
-725.0
 20
1296.786335
 30
0.0
 11
750.0
 21
1296.786335
 31
0.0
  0
TEXT
  5
5A7
  8
SPEC
 62
     7
 10
-391.0
 20
1343.647215
 30
0.0
 40
19.755520000000001
  1
サブウーハー(Indoor/Outdoor Subwoofer)
 41
0.8
 11
-391.0
 21
1363.402734999999
 31
0.0
 73
     3
  0
LINE
  5
5A8
  8
SPEC
  6
CONTINUOUS
 62
     7
 10
-724.99999999999955
 20
734.27533999999935
 30
0.0
 11
750.0
 21
734.27533999999935
 31
0.0
  0
LINE
  5
5A9
  8
SPEC
  6
CONTINUOUS
 62
     7
 10
-724.99999999999955
 20
771.77533999999935
 30
0.0
 11
750.0
 21
771.77533999999935
 31
0.0
  0
LINE
  5
5AA
  8
SPEC
  6
CONTINUOUS
 62
     7
 10
-724.99999999999955
 20
809.27533999999935
 30
0.0
 11
750.0
 21
809.27533999999935
 31
0.0
  0
LINE
  5
5AB
  8
SPEC
  6
CONTINUOUS
 62
     7
 10
-725.0
 20
1371.786335
 30
0.0
 11
-725.0
 21
734.27533999999935
 31
0.0
  0
TEXT
  5
5AC
  8
SPEC
 62
     7
 10
-712.5
 20
1387.6240349999989
 30
0.0
 40
25.399999999999999
  1
仕様
 41
0.8
 11
-712.5
 21
1413.024034999999
 31
0.0
 73
     3
  0
LINE
  5
5AD
  8
SPEC
  6
CONTINUOUS
 62
     7
 10
-400.0
 20
1371.786335
 30
0.0
 11
-400.0
 21
734.27533999999935
 31
0.0
  0
LINE
  5
5AE
  8
SPEC
  6
CONTINUOUS
 62
     7
 10
400.0
 20
250.0
 30
0.0
 11
550.0
 21
250.0
 31
0.0
  0
TEXT
  5
5AF
  8
SPEC
 62
     7
 10
439.91320000000002
 20
263.90343999999999
 30
0.0
 40
18.712959999999999
  1
接続図
 41
0.8
 11
439.91320000000002
 21
282.6164
 31
0.0
 73
     3
  0
LINE
  5
5B0
  8
SPEC
  6
CONTINUOUS
 62
     7
 10
750.0
 20
1371.786335
 30
0.0
 11
750.0
 21
734.27533999999935
 31
0.0
  0
TEXT
  5
5B1
  8
SPEC
 62
     7
 10
-390.99999999999977
 20
1193.6398849999989
 30
0.0
 40
19.755520000000001
  1
115dB SPL
 41
0.8
 11
-390.99999999999977
 21
1213.3954049999991
 31
0.0
 73
     3
  0
TEXT
  5
5B2
  8
SPEC
 62
     7
 10
-390.99999999999977
 20
1231.1398849999989
 30
0.0
 40
19.755520000000001
  1
95dB SPL
 41
0.8
 11
-390.99999999999977
 21
1250.8954049999991
 31
0.0
 73
     3
  0
TEXT
  5
5B3
  8
SPEC
 62
     7
 10
-390.9999999999996
 20
1118.636219999999
 30
0.0
 40
19.755520000000001
  1
200W(Program),100W(Pink Noise)
 41
0.8
 11
-390.9999999999996
 21
1138.3917399999989
 31
0.0
 73
     3
  0
TEXT
  5
5B4
  8
SPEC
 62
     7
 10
-715.99999999999955
 20
743.6362199999993
 30
0.0
 40
19.755520000000001
  1
付属品
 41
0.8
 11
-715.99999999999955
 21
763.39173999999934
 31
0.0
 73
     3
  0
TEXT
  5
5B5
  8
SPEC
 62
     7
 10
-715.99999999999955
 20
818.63621999999918
 30
0.0
 40
19.755520000000001
  1
寸法
 41
0.8
 11
-715.99999999999955
 21
838.39173999999934
 31
0.0
 73
     3
  0
TEXT
  5
5B6
  8
SPEC
 62
     7
 10
-715.99999999999955
 20
781.1362199999993
 30
0.0
 40
19.755520000000001
  1
重量
 41
0.8
 11
-715.99999999999955
 21
800.89173999999934
 31
0.0
 73
     3
  0
TEXT
  5
5B7
  8
SPEC
 62
     7
 10
-716.0
 20
1343.647215
 30
0.0
 40
19.755520000000001
  1
形式
 41
0.8
 11
-716.0
 21
1363.402734999999
 31
0.0
 73
     3
  0
TEXT
  5
5B8
  8
SPEC
 62
     7
 10
-715.99999999999955
 20
1156.1398849999989
 30
0.0
 40
19.755520000000001
  1
公称インピーダンス
 41
0.8
 11
-715.99999999999955
 21
1175.8954049999991
 31
0.0
 73
     3
  0
TEXT
  5
5B9
  8
SPEC
 62
     7
 10
-716.0
 20
1268.6435499999991
 30
0.0
 40
19.755520000000001
  1
低域ユニット
 41
0.8
 11
-716.0
 21
1288.399069999999
 31
0.0
 73
     3
  0
TEXT
  5
5BA
  8
SPEC
 62
     7
 10
-716.0
 20
1306.147215
 30
0.0
 40
19.755520000000001
  1
周波数レンジ(-10dB)
 41
0.8
 11
-716.0
 21
1325.902734999999
 31
0.0
 73
     3
  0
TEXT
  5
5BB
  8
SPEC
 62
     7
 10
-715.99999999999955
 20
1231.1398849999989
 30
0.0
 40
19.755520000000001
  1
音圧レベル(1W/1m)
 41
0.8
 11
-715.99999999999955
 21
1250.8954049999991
 31
0.0
 73
     3
  0
TEXT
  5
5BC
  8
SPEC
 62
     7
 10
-715.99999999999955
 20
1193.6398849999989
 30
0.0
 40
19.755520000000001
  1
最大音圧(＠1m)
 41
0.8
 11
-715.99999999999955
 21
1213.3954049999991
 31
0.0
 73
     3
  0
TEXT
  5
5BD
  8
SPEC
 62
     7
 10
-715.99999999999955
 20
1118.636219999999
 30
0.0
 40
19.755520000000001
  1
許容入力
 41
0.8
 11
-715.99999999999955
 21
1138.3917399999989
 31
0.0
 73
     3
  0
TEXT
  5
5BE
  8
SPEC
 62
     7
 10
-390.99999999999977
 20
1156.1398849999989
 30
0.0
 40
19.755520000000001
  1
8Ω
 41
0.8
 11
-390.99999999999977
 21
1175.8954049999991
 31
0.0
 73
     3
  0
TEXT
  5
5BF
  8
SPEC
 62
     7
 10
-391.0
 20
1268.6435499999991
 30
0.0
 40
19.755520000000001
  1
200mm(口径:8インチ)
 41
0.8
 11
-391.0
 21
1288.399069999999
 31
0.0
 73
     3
  0
TEXT
  5
5C0
  8
SPEC
 62
     7
 10
-391.0
 20
1306.147215
 30
0.0
 40
19.755520000000001
  1
46Hz～180Hz
 41
0.8
 11
-391.0
 21
1325.902734999999
 31
0.0
 73
     3
  0
TEXT
  5
5C1
  8
SPEC
 62
     7
 10
-715.99999999999955
 20
856.13989388888831
 30
0.0
 40
19.75555555555556
  1
可変振り角度（スピーカ）
 41
0.8
 11
-715.99999999999955
 21
875.89544944444401
 31
0.0
 73
     3
  0
TEXT
  5
5C2
  8
SPEC
 62
     7
 10
-715.99999999999955
 20
931.13989388888831
 30
0.0
 40
19.75555555555556
  1
メンテナンス
 41
0.8
 11
-715.99999999999955
 21
950.89544944444401
 31
0.0
 73
     3
  0
TEXT
  5
5C3
  8
SPEC
 62
     7
 10
-715.99999999999955
 20
893.63622888888835
 30
0.0
 40
19.75555555555556
  1
コネクター
 41
0.8
 11
-715.99999999999955
 21
913.39178444444383
 31
0.0
 73
     3
  0
TEXT
  5
5C4
  8
SPEC
 62
     7
 10
-715.99999999999955
 20
968.63622888888835
 30
0.0
 40
19.75555555555556
  1
極性
 41
0.8
 11
-715.99999999999955
 21
988.39178444444383
 31
0.0
 73
     3
  0
TEXT
  5
5C5
  8
SPEC
 62
     7
 10
-715.99999999999955
 20
1043.6362288888879
 30
0.0
 40
19.75555555555556
  1
外装色
 41
0.8
 11
-715.99999999999955
 21
1063.3917844444429
 31
0.0
 73
     3
  0
TEXT
  5
5C6
  8
SPEC
 62
     7
 10
-715.99999999999955
 20
1081.1398938888881
 30
0.0
 40
19.75555555555556
  1
耐候性規格
 41
0.8
 11
-715.99999999999955
 21
1100.895449444444
 31
0.0
 73
     3
  0
TEXT
  5
5C7
  8
SPEC
 62
     7
 10
-390.99999999999977
 20
856.13989388888831
 30
0.0
 40
19.75555555555556
  1
横方向 : 44゜ , 縦方向 : 37゜
 41
0.8
 11
-390.99999999999977
 21
875.89544944444401
 31
0.0
 73
     3
  0
TEXT
  5
5C8
  8
SPEC
 62
     7
 10
-390.99999999999977
 20
931.13989388888831
 30
0.0
 40
19.75555555555556
  1
SPユニットは前面側で交換
 41
0.8
 11
-390.99999999999977
 21
950.89544944444401
 31
0.0
 73
     3
  0
TEXT
  5
5C9
  8
SPEC
 62
     7
 10
-390.9999999999996
 20
893.63622888888835
 30
0.0
 40
19.75555555555556
  1
プッシュ式ターミナル
 41
0.8
 11
-390.9999999999996
 21
913.39178444444383
 31
0.0
 73
     3
  0
TEXT
  5
5CA
  8
SPEC
 62
     7
 10
-390.9999999999996
 20
818.63622888888835
 30
0.0
 40
19.75555555555556
  1
279(W)×382(H)×224(D)mm
 41
0.8
 11
-390.9999999999996
 21
838.39178444444383
 31
0.0
 73
     3
  0
TEXT
  5
5CB
  8
SPEC
 62
     7
 10
-390.9999999999996
 20
781.13622888888824
 30
0.0
 40
19.75555555555556
  1
約6.9kg(1本,金具等含まず)
 41
0.8
 11
-390.9999999999996
 21
800.89178444444383
 31
0.0
 73
     3
  0
TEXT
  5
5CC
  8
SPEC
 62
     7
 10
-390.99999999999977
 20
1081.1398938888881
 30
0.0
 40
19.75555555555556
  1
Mil-Std 810 , IPX4 Per IEC 529 (全天候型)
 41
0.8
 11
-390.99999999999977
 21
1100.895449444444
 31
0.0
 73
     3
  0
TEXT
  5
5CD
  8
SPEC
 62
     7
 10
-390.9999999999996
 20
968.63622888888835
 30
0.0
 40
19.75555555555556
  1
正相
 41
0.8
 11
-390.9999999999996
 21
988.39178444444383
 31
0.0
 73
     3
  0
TEXT
  5
5CE
  8
SPEC
 62
     7
 10
-391.0
 20
1010.638888888888
 30
0.0
 40
19.75555555555556
  1
CONTROL 18S-WH: 白
 41
0.8
 11
-391.0
 21
1030.3944444444439
 31
0.0
 73
     3
  0
TEXT
  5
5CF
  8
SPEC
 62
     7
 10
-390.9999999999996
 20
1043.6362288888879
 30
0.0
 40
19.75555555555556
  1
CONTROL 18S: 黒
 41
0.8
 11
-390.9999999999996
 21
1063.3917844444429
 31
0.0
 73
     3
  0
LINE
  5
5D0
  8
SPEC
  6
CONTINUOUS
 62
     7
 10
-724.99999999999955
 20
1146.779004999999
 30
0.0
 11
750.0
 21
1146.779004999999
 31
0.0
  0
LINE
  5
5D1
  8
SPEC
  6
CONTINUOUS
 62
     7
 10
-724.99999999999955
 20
1109.279004999999
 30
0.0
 11
750.0
 21
1109.279004999999
 31
0.0
  0
LINE
  5
5D2
  8
SPEC
  6
CONTINUOUS
 62
     7
 10
-724.99999999999955
 20
1071.779004999999
 30
0.0
 11
750.0
 21
1071.779004999999
 31
0.0
  0
LINE
  5
5D3
  8
SPEC
  6
CONTINUOUS
 62
     7
 10
-724.99999999999955
 20
996.77900499999942
 30
0.0
 11
750.0
 21
996.77900499999942
 31
0.0
  0
LINE
  5
5D4
  8
SPEC
  6
CONTINUOUS
 62
     7
 10
-724.99999999999955
 20
921.77900499999942
 30
0.0
 11
750.0
 21
921.77900499999942
 31
0.0
  0
LINE
  5
5D5
  8
SPEC
  6
CONTINUOUS
 62
     7
 10
-724.99999999999955
 20
959.27900499999942
 30
0.0
 11
750.0
 21
959.27900499999942
 31
0.0
  0
LINE
  5
5D6
  8
SPEC
  6
CONTINUOUS
 62
     7
 10
-724.99999999999955
 20
884.27900499999942
 30
0.0
 11
750.0
 21
884.27900499999942
 31
0.0
  0
LINE
  5
5D7
  8
SPEC
  6
CONTINUOUS
 62
     7
 10
-724.99999999999955
 20
846.77900499999942
 30
0.0
 11
750.0
 21
846.77900499999942
 31
0.0
  0
LINE
  5
5D8
  8
SPEC
  6
STYLE_01
 62
     7
 10
400.0
 20
412.5
 30
0.0
 11
525.0
 21
412.5
 31
0.0
  0
LINE
  5
5D9
  8
SPEC
  6
STYLE_01
 62
     7
 10
400.0
 20
487.5
 30
0.0
 11
525.0
 21
487.5
 31
0.0
  0
LINE
  5
5DA
  8
SPEC
  6
CONTINUOUS
 62
     7
 10
-83.333187499999923
 20
412.50000000000011
 30
0.0
 11
-66.666562499999614
 21
412.50000000000011
 31
0.0
  0
LINE
  5
5DB
  8
SPEC
  6
CONTINUOUS
 62
     7
 10
-43.749999999999559
 20
403.12500000000011
 30
0.0
 11
-25.000000000000011
 21
412.5
 31
0.0
  0
LINE
  5
5DC
  8
SPEC
  6
CONTINUOUS
 62
     7
 10
-43.749999999999559
 20
421.875
 30
0.0
 11
-25.000000000000011
 21
412.5
 31
0.0
  0
TEXT
  5
5DD
  8
SPEC
 62
     7
 10
-76.458333333333485
 20
443.64999999999992
 30
0.0
 40
16.93333333333333
  1
INPUT
 41
0.8
 11
-76.458333333333485
 21
460.58333333333331
 31
0.0
 73
     3
  0
LINE
  5
5DE
  8
SPEC
  6
CONTINUOUS
 62
     7
 10
-25.000000000000011
 20
412.5
 30
0.0
 11
400.0
 21
412.5
 31
0.0
  0
CIRCLE
  5
5DF
  8
SPEC
  6
CONTINUOUS
 62
     7
 10
800.0
 20
500.0
 30
0.0
 40
90.0
  0
TEXT
  5
5E0
  8
SPEC
 62
     7
 10
750.74835467675518
 20
376.80100502057121
 30
0.0
 40
16.93333333333333
  1
WHT
 50
45.0
 41
0.8
 11
738.77467984866314
 21
388.77467984866342
 31
0.0
 73
     3
  0
CIRCLE
  5
5E1
  8
SPEC
  6
CONTINUOUS
 62
     7
 10
800.0
 20
500.0
 30
0.0
 40
45.0
  0
CIRCLE
  5
5E2
  8
SPEC
  6
CONTINUOUS
 62
     7
 10
800.0
 20
500.0
 30
0.0
 40
35.0
  0
LINE
  5
5E3
  8
SPEC
  6
CONTINUOUS
 62
     7
 10
700.0
 20
414.14213562373112
 30
0.0
 11
752.32928345375774
 21
466.4714190774888
 31
0.0
  0
TEXT
  5
5E4
  8
SPEC
 62
     7
 10
653.29771437408272
 20
394.31745825301368
 30
0.0
 40
16.93333333333333
  1
WHT/BLK
 50
45.0
 41
0.8
 11
641.32403954599044
 21
406.29113308110601
 31
0.0
 73
     3
  0
LINE
  5
5E5
  8
SPEC
  6
CONTINUOUS
 62
     7
 10
700.0
 20
350.0
 30
0.0
 11
700.0
 21
414.14213562373112
 31
0.0
  0
TEXT
  5
5E6
  8
SPEC
 62
     7
 10
534.51709827509126
 20
383.06666666666661
 30
0.0
 40
16.93333333333333
  1
L.F.-
 41
0.8
 11
534.51709827509126
 21
400.0
 31
0.0
 73
     3
  0
LINE
  5
5E7
  8
SPEC
  6
CONTINUOUS
 62
     7
 10
525.0
 20
412.5
 30
0.0
 11
600.0
 21
412.5
 31
0.0
  0
TEXT
  5
5E8
  8
SPEC
 62
     7
 10
534.125
 20
504.23333333333341
 30
0.0
 40
16.93333333333333
  1
L.F.+
 41
0.8
 11
534.125
 21
521.16666666666674
 31
0.0
 73
     3
  0
LINE
  5
5E9
  8
SPEC
  6
CONTINUOUS
 62
     7
 10
525.0
 20
487.5
 30
0.0
 11
625.0
 21
487.5
 31
0.0
  0
LINE
  5
5EA
  8
SPEC
  6
CONTINUOUS
 62
     7
 10
724.99999999999955
 20
300.0
 30
0.0
 11
724.99999999999955
 21
410.85786437626882
 31
0.0
  0
LINE
  5
5EB
  8
SPEC
  6
CONTINUOUS
 62
     7
 10
724.99999999999955
 20
410.85786437626882
 30
0.0
 11
766.47141907748835
 21
452.32928345375763
 31
0.0
  0
TEXT
  5
5EC
  8
SPEC
 62
     7
 10
900.0
 20
518.64999999999986
 30
0.0
 40
16.93333333333333
  1
Driver
 41
0.8
 11
900.0
 21
535.58333333333326
 31
0.0
 73
     3
  0
TEXT
  5
5ED
  8
SPEC
 62
     7
 10
900.0
 20
493.64999999999992
 30
0.0
 40
16.93333333333333
  1
Low Freq
 41
0.8
 11
900.0
 21
510.58333333333331
 31
0.0
 73
     3
  0
TEXT
  5
5EE
  8
SPEC
 62
     7
 10
900.0
 20
468.64999999999992
 30
0.0
 40
16.93333333333333
  1
200mm
 41
0.8
 11
900.0
 21
485.58333333333331
 31
0.0
 73
     3
  0
TEXT
  5
5EF
  8
SPEC
 62
     7
 10
188.4166666666664
 20
493.64999999999992
 30
0.0
 40
16.93333333333333
  1
ソニックガード
 41
0.8
 11
188.4166666666664
 21
510.58333333333331
 31
0.0
 73
     3
  0
LINE
  5
5F0
  8
SPEC
  6
CONTINUOUS
 62
     7
 10
-25.000000000000011
 20
487.49999999999977
 30
0.0
 11
8.4999999999999876
 21
487.49999999999977
 31
0.0
  0
LINE
  5
5F1
  8
SPEC
  6
CONTINUOUS
 62
     7
 10
-74.999874999999093
 20
479.16668749999963
 30
0.0
 11
-74.999874999999093
 21
495.83331249999992
 31
0.0
  0
LINE
  5
5F2
  8
SPEC
  6
CONTINUOUS
 62
     7
 10
-83.333187499999923
 20
487.49999999999977
 30
0.0
 11
-66.666562499999614
 21
487.49999999999977
 31
0.0
  0
LINE
  5
5F3
  8
SPEC
  6
CONTINUOUS
 62
     7
 10
-43.749999999999559
 20
478.12499999999977
 30
0.0
 11
-25.000000000000011
 21
487.49999999999977
 31
0.0
  0
LINE
  5
5F4
  8
SPEC
  6
CONTINUOUS
 62
     7
 10
-43.749999999999559
 20
496.875
 30
0.0
 11
-25.000000000000011
 21
487.49999999999977
 31
0.0
  0
LINE
  5
5F5
  8
SPEC
  6
CONTINUOUS
 62
     7
 10
350.0
 20
487.5
 30
0.0
 11
400.0
 21
487.5
 31
0.0
  0
TEXT
  5
5F6
  8
SPEC
 62
     7
 10
241.33333333333289
 20
468.64999999999992
 30
0.0
 40
16.93333333333333
  1
回路
 41
0.8
 11
241.33333333333289
 21
485.58333333333331
 31
0.0
 73
     3
  0
POLYLINE
  5
5F7
  8
SPEC
  6
CONTINUOUS
 62
     7
 66
     1
 10
0.0
 20
0.0
 30
0.0
 70
     1
  0
VERTEX
  5
939
  8
SPEC
  6
CONTINUOUS
 62
     7
 10
400.0
 20
500.0
 30
0.0
  0
VERTEX
  5
93A
  8
SPEC
  6
CONTINUOUS
 62
     7
 10
525.0
 20
500.0
 30
0.0
  0
VERTEX
  5
93B
  8
SPEC
  6
CONTINUOUS
 62
     7
 10
525.0
 20
400.0
 30
0.0
  0
VERTEX
  5
93C
  8
SPEC
  6
CONTINUOUS
 62
     7
 10
400.0
 20
400.0
 30
0.0
  0
SEQEND
  5
93D
  8
SPEC
  6
CONTINUOUS
 62
     7
  0
TEXT
  5
5FD
  8
SPEC
 62
     7
 10
409.58333333333292
 20
431.14999999999992
 30
0.0
 40
16.93333333333333
  1
フィルター
 41
0.8
 11
409.58333333333292
 21
448.08333333333331
 31
0.0
 73
     3
  0
TEXT
  5
5FE
  8
SPEC
 62
     7
 10
420.16666666666652
 20
456.14999999999992
 30
0.0
 40
16.93333333333333
  1
ローパス
 41
0.8
 11
420.16666666666652
 21
473.08333333333331
 31
0.0
 73
     3
  0
CIRCLE
  5
5FF
  8
SPEC
  6
CONTINUOUS
 62
     7
 10
800.0
 20
500.0
 30
0.0
 40
75.0
  0
ARC
  5
600
  8
SPEC
  6
CONTINUOUS
 62
     7
 10
800.0
 20
500.0
 30
0.0
 40
67.500000000000128
 50
99.594068226860443
 51
170.40593177313929
  0
ARC
  5
601
  8
SPEC
  6
CONTINUOUS
 62
     7
 10
800.0
 20
500.0
 30
0.0
 40
67.499999999999915
 50
189.59406822686049
 51
260.40593177313963
  0
ARC
  5
602
  8
SPEC
  6
CONTINUOUS
 62
     7
 10
800.0
 20
500.0
 30
0.0
 40
67.500000000000128
 50
279.59406822686037
 51
350.40593177313929
  0
ARC
  5
603
  8
SPEC
  6
CONTINUOUS
 62
     7
 10
800.0
 20
500.0
 30
0.0
 40
67.499999999999915
 50
9.5940682268606672
 51
80.405931773139542
  0
CIRCLE
  5
604
  8
SPEC
  6
CONTINUOUS
 62
     7
 10
800.0
 20
581.0
 30
0.0
 40
2.499999999999897
  0
CIRCLE
  5
605
  8
SPEC
  6
CONTINUOUS
 62
     7
 10
800.0
 20
419.0
 30
0.0
 40
2.499999999999897
  0
CIRCLE
  5
606
  8
SPEC
  6
CONTINUOUS
 62
     7
 10
742.72435072388976
 20
557.27564927611047
 30
0.0
 40
2.499999999999805
  0
CIRCLE
  5
607
  8
SPEC
  6
CONTINUOUS
 62
     7
 10
857.27564927611013
 20
442.7243507238897
 30
0.0
 40
2.5000000000003948
  0
CIRCLE
  5
608
  8
SPEC
  6
CONTINUOUS
 62
     7
 10
719.0
 20
500.00000000000011
 30
0.0
 40
2.499999999999897
  0
CIRCLE
  5
609
  8
SPEC
  6
CONTINUOUS
 62
     7
 10
881.0
 20
500.0
 30
0.0
 40
2.5000000000001061
  0
CIRCLE
  5
60A
  8
SPEC
  6
CONTINUOUS
 62
     7
 10
742.72435072388976
 20
442.72435072388947
 30
0.0
 40
2.499999999999805
  0
CIRCLE
  5
60B
  8
SPEC
  6
CONTINUOUS
 62
     7
 10
857.27564927611013
 20
557.27564927611024
 30
0.0
 40
2.5000000000003948
  0
LINE
  5
60C
  8
SPEC
  6
CONTINUOUS
 62
     7
 10
790.0
 20
574.33034373659245
 30
0.0
 11
790.0
 21
543.87482193696064
 31
0.0
  0
LINE
  5
60D
  8
SPEC
  6
CONTINUOUS
 62
     7
 10
810.0
 20
574.33034373659245
 30
0.0
 11
810.0
 21
543.87482193696064
 31
0.0
  0
LINE
  5
60E
  8
SPEC
  6
CONTINUOUS
 62
     7
 10
790.0
 20
425.66965626340738
 30
0.0
 11
790.0
 21
456.12517806303941
 31
0.0
  0
LINE
  5
60F
  8
SPEC
  6
CONTINUOUS
 62
     7
 10
810.0
 20
425.66965626340738
 30
0.0
 11
810.0
 21
456.12517806303941
 31
0.0
  0
LINE
  5
610
  8
SPEC
  6
CONTINUOUS
 62
     7
 10
874.33034373659245
 20
510.0
 30
0.0
 11
843.87482193696076
 21
510.0
 31
0.0
  0
LINE
  5
611
  8
SPEC
  6
CONTINUOUS
 62
     7
 10
874.33034373659245
 20
490.0
 30
0.0
 11
843.87482193696076
 21
490.0
 31
0.0
  0
LINE
  5
612
  8
SPEC
  6
CONTINUOUS
 62
     7
 10
725.66965626340743
 20
510.0
 30
0.0
 11
756.1251780630389
 21
510.0
 31
0.0
  0
LINE
  5
613
  8
SPEC
  6
CONTINUOUS
 62
     7
 10
725.66965626340743
 20
490.0
 30
0.0
 11
756.1251780630389
 21
490.0
 31
0.0
  0
LINE
  5
614
  8
SPEC
  6
CONTINUOUS
 62
     7
 10
752.32928345375774
 20
473.542486889354
 30
0.0
 11
759.3933982822017
 21
480.60660171779818
 31
0.0
  0
LINE
  5
615
  8
SPEC
  6
CONTINUOUS
 62
     7
 10
773.54248688935422
 20
452.32928345375763
 30
0.0
 11
752.32928345375774
 21
473.542486889354
 31
0.0
  0
LINE
  5
616
  8
SPEC
  6
CONTINUOUS
 62
     7
 10
780.60660171779818
 20
459.3933982822017
 30
0.0
 11
773.54248688935422
 21
452.32928345375763
 31
0.0
  0
LINE
  5
617
  8
SPEC
  6
CONTINUOUS
 62
     7
 10
750.56151650079119
 20
468.23918603045479
 30
0.0
 11
754.09705040672395
 21
471.77471993638773
 31
0.0
  0
LINE
  5
618
  8
SPEC
  6
CONTINUOUS
 62
     7
 10
754.09705040672338
 20
464.70365212452219
 30
0.0
 11
750.56151650079119
 21
468.23918603045479
 31
0.0
  0
LINE
  5
619
  8
SPEC
  6
CONTINUOUS
 62
     7
 10
757.63258431265695
 20
468.23918603045479
 30
0.0
 11
754.09705040672338
 21
464.70365212452219
 31
0.0
  0
LINE
  5
61A
  8
SPEC
  6
CONTINUOUS
 62
     7
 10
764.70365212452225
 20
454.09705040672412
 30
0.0
 11
768.23918603045502
 21
457.63258431265672
 31
0.0
  0
LINE
  5
61B
  8
SPEC
  6
CONTINUOUS
 62
     7
 10
768.23918603045502
 20
450.56151650079107
 30
0.0
 11
764.70365212452225
 21
454.09705040672412
 31
0.0
  0
LINE
  5
61C
  8
SPEC
  6
CONTINUOUS
 62
     7
 10
771.77471993638744
 20
454.09705040672412
 30
0.0
 11
768.23918603045502
 21
450.56151650079107
 31
0.0
  0
LINE
  5
61D
  8
SPEC
  6
CONTINUOUS
 62
     7
 10
625.0
 20
487.5
 30
0.0
 11
625.0
 21
300.0
 31
0.0
  0
LINE
  5
61E
  8
SPEC
  6
CONTINUOUS
 62
     7
 10
700.0
 20
350.0
 30
0.0
 11
600.0
 21
350.0
 31
0.0
  0
LINE
  5
61F
  8
SPEC
  6
CONTINUOUS
 62
     7
 10
600.0
 20
350.0
 30
0.0
 11
600.0
 21
412.5
 31
0.0
  0
LINE
  5
620
  8
SPEC
  6
CONTINUOUS
 62
     7
 10
625.0
 20
300.0
 30
0.0
 11
724.99999999999955
 21
300.0
 31
0.0
  0
POLYLINE
  5
621
  8
SPEC
  6
CONTINUOUS
 62
     7
 66
     1
 10
0.0
 20
0.0
 30
0.0
 70
     1
  0
VERTEX
  5
93E
  8
SPEC
  6
CONTINUOUS
 62
     7
 10
175.0
 20
525.0
 30
0.0
  0
VERTEX
  5
93F
  8
SPEC
  6
CONTINUOUS
 62
     7
 10
350.0
 20
525.0
 30
0.0
  0
VERTEX
  5
940
  8
SPEC
  6
CONTINUOUS
 62
     7
 10
350.0
 20
450.0
 30
0.0
  0
VERTEX
  5
941
  8
SPEC
  6
CONTINUOUS
 62
     7
 10
175.0
 20
450.0
 30
0.0
  0
SEQEND
  5
942
  8
SPEC
  6
CONTINUOUS
 62
     7
  0
TEXT
  5
627
  8
SPEC
 62
     7
 10
2.374999999999984
 20
518.64999999999986
 30
0.0
 40
16.93333333333333
  1
Pico Fuse
 41
0.8
 11
2.3749999999999849
 21
535.58333333333326
 31
0.0
 73
     3
  0
ARC
  5
628
  8
SPEC
  6
CONTINUOUS
 62
     7
 10
31.249999999999979
 20
468.74999999999977
 30
0.0
 40
26.51650429449553
 50
45.0
 51
126.348747435505
  0
ARC
  5
629
  8
SPEC
  6
CONTINUOUS
 62
     7
 10
68.749999999999986
 20
506.24999999999977
 30
0.0
 40
26.51650429449553
 50
225.0
 51
306.348747435505
  0
CIRCLE
  5
62A
  8
SPEC
  6
CONTINUOUS
 62
     7
 10
12.49999999999998
 20
487.49999999999977
 30
0.0
 40
4.0
  0
CIRCLE
  5
62B
  8
SPEC
  6
CONTINUOUS
 62
     7
 10
87.499999999999545
 20
487.49999999999977
 30
0.0
 40
4.0
  0
LINE
  5
62C
  8
SPEC
  6
CONTINUOUS
 62
     7
 10
91.499999999999517
 20
487.49999999999977
 30
0.0
 11
175.0
 21
487.5
 31
0.0
  0
LINE
  5
62D
  8
SPEC
  6
CONTINUOUS
 62
     7
 10
133.25
 20
487.5
 30
0.0
 11
133.25
 21
375.0
 31
0.0
  0
LINE
  5
62E
  8
SPEC
  6
CONTINUOUS
 62
     7
 10
120.75
 20
367.5
 30
0.0
 11
145.75
 21
367.5
 31
0.0
  0
LINE
  5
62F
  8
SPEC
  6
CONTINUOUS
 62
     7
 10
120.75
 20
375.0
 30
0.0
 11
145.75
 21
375.0
 31
0.0
  0
LINE
  5
630
  8
SPEC
  6
CONTINUOUS
 62
     7
 10
-83.333187499999923
 20
250.0000000000004
 30
0.0
 11
-66.666562499999614
 21
250.0000000000004
 31
0.0
  0
LINE
  5
631
  8
SPEC
  6
CONTINUOUS
 62
     7
 10
-43.749999999999559
 20
240.6250000000004
 30
0.0
 11
-25.000000000000011
 21
250.0000000000002
 31
0.0
  0
LINE
  5
632
  8
SPEC
  6
CONTINUOUS
 62
     7
 10
-43.749999999999559
 20
259.37500000000028
 30
0.0
 11
-25.000000000000011
 21
250.0000000000002
 31
0.0
  0
TEXT
  5
633
  8
SPEC
 62
     7
 10
-76.458333333333485
 20
281.15000000000032
 30
0.0
 40
16.93333333333333
  1
OUTPUT
 41
0.8
 11
-76.458333333333485
 21
298.0833333333336
 31
0.0
 73
     3
  0
LINE
  5
634
  8
SPEC
  6
CONTINUOUS
 62
     7
 10
-74.999874999999093
 20
316.66668749999968
 30
0.0
 11
-74.999874999999093
 21
333.33331250000009
 31
0.0
  0
LINE
  5
635
  8
SPEC
  6
CONTINUOUS
 62
     7
 10
-83.333187499999923
 20
325.0
 30
0.0
 11
-66.666562499999614
 21
325.0
 31
0.0
  0
LINE
  5
636
  8
SPEC
  6
CONTINUOUS
 62
     7
 10
-43.749999999999559
 20
315.625
 30
0.0
 11
-25.000000000000011
 21
325.0
 31
0.0
  0
LINE
  5
637
  8
SPEC
  6
CONTINUOUS
 62
     7
 10
-43.749999999999559
 20
334.37500000000028
 30
0.0
 11
-25.000000000000011
 21
325.0
 31
0.0
  0
LINE
  5
638
  8
SPEC
  6
CONTINUOUS
 62
     7
 10
-25.000000000000011
 20
325.0
 30
0.0
 11
133.25
 21
325.0
 31
0.0
  0
LINE
  5
639
  8
SPEC
  6
CONTINUOUS
 62
     7
 10
133.25
 20
367.5
 30
0.0
 11
133.25
 21
325.0
 31
0.0
  0
CIRCLE
  5
63A
  8
SPEC
  6
CONTINUOUS
 62
     7
 10
133.25
 20
487.5
 30
0.0
 40
4.0
  0
LINE
  5
63B
  8
SPEC
  6
CONTINUOUS
 62
     7
 10
-25.000000000000011
 20
250.0
 30
0.0
 11
175.0
 21
250.0
 31
0.0
  0
LINE
  5
63C
  8
SPEC
  6
CONTINUOUS
 62
     7
 10
175.0
 20
250.0
 30
0.0
 11
175.0
 21
412.5
 31
0.0
  0
CIRCLE
  5
63D
  8
SPEC
  6
CONTINUOUS
 62
     7
 10
175.0
 20
412.5
 30
0.0
 40
4.0
  0
TEXT
  5
63E
  8
SPEC
 62
     7
 10
-390.9999999999996
 20
743.63622888888824
 30
0.0
 40
19.75555555555556
  1
Invisiball取付金具(壁用 1本:約230g),六角レンチ
 41
0.8
 11
-390.9999999999996
 21
763.39178444444383
 31
0.0
 73
     3
  0
TEXT
  5
63F
  8
DIMNSIONS
 62
     7
 10
-112.47760428584481
 20
-594.17886247815011
 30
0.0
 40
28.222222222222221
  1
37°
 50
90.0
 41
0.8
 11
-140.69982650806699
 21
-594.17886247815011
 31
0.0
 73
     3
  0
TEXT
  5
640
  8
DIMNSIONS
 62
     7
 10
-100.0
 20
-1003.613764999999
 30
0.0
 40
25.399999999999999
  1
(単位：mm)
 41
0.8
 11
-100.0
 21
-978.21376499999974
 31
0.0
 73
     3
  0
LINE
  5
641
  8
DIMNSIONS
  6
CONTINUOUS
 62
     7
 10
-555.30000000000007
 20
109.9829911999997
 30
0.0
 11
-720.0
 21
109.9829911999997
 31
0.0
  0
LINE
  5
642
  8
DIMNSIONS
  6
CONTINUOUS
 62
     7
 10
-576.20185955205102
 20
48.982991200000022
 30
0.0
 11
-720.0
 21
48.982991200000022
 31
0.0
  0
LINE
  5
643
  8
DIMNSIONS
 62
     7
 10
-700.0
 20
109.9829911999997
 30
0.0
 11
-693.2996020484976
 21
84.976765614062259
 31
0.0
  0
LINE
  5
644
  8
DIMNSIONS
 62
     7
 10
-700.0
 20
109.9829911999997
 30
0.0
 11
-706.7003979515024
 21
84.976765614062259
 31
0.0
  0
LINE
  5
645
  8
DIMNSIONS
 62
     7
 10
-700.0
 20
48.982991200000022
 30
0.0
 11
-706.7003979515024
 21
73.989216785937501
 31
0.0
  0
LINE
  5
646
  8
DIMNSIONS
 62
     7
 10
-700.0
 20
48.982991200000022
 30
0.0
 11
-693.2996020484976
 21
73.989216785937501
 31
0.0
  0
LINE
  5
647
  8
DIMNSIONS
  6
CONTINUOUS
 62
     7
 10
-700.0
 20
109.9829911999997
 30
0.0
 11
-700.0
 21
48.982991200000022
 31
0.0
  0
TEXT
  5
648
  8
DIMNSIONS
 62
     7
 10
-712.05555555555543
 20
61.844102311111023
 30
0.0
 40
28.222222222222221
  1
61
 50
90.0
 41
0.8
 11
-740.27777777777771
 21
61.844102311111023
 31
0.0
 73
     3
  0
LINE
  5
649
  8
DIMNSIONS
  6
CONTINUOUS
 62
     7
 10
-576.20185955205102
 20
48.982991200000022
 30
0.0
 11
-720.0
 21
48.982991200000022
 31
0.0
  0
LINE
  5
64A
  8
DIMNSIONS
  6
CONTINUOUS
 62
     7
 10
-520.30000000000018
 20
-175.0000000000002
 30
0.0
 11
-720.0
 21
-175.0000000000002
 31
0.0
  0
LINE
  5
64B
  8
DIMNSIONS
 62
     7
 10
-700.0
 20
48.982991200000022
 30
0.0
 11
-693.2996020484976
 21
23.976765614062511
 31
0.0
  0
LINE
  5
64C
  8
DIMNSIONS
 62
     7
 10
-700.0
 20
48.982991200000022
 30
0.0
 11
-706.7003979515024
 21
23.976765614062511
 31
0.0
  0
LINE
  5
64D
  8
DIMNSIONS
 62
     7
 10
-700.0
 20
-175.0000000000002
 30
0.0
 11
-706.7003979515024
 21
-149.99377441406261
 31
0.0
  0
LINE
  5
64E
  8
DIMNSIONS
 62
     7
 10
-700.0
 20
-175.0000000000002
 30
0.0
 11
-693.2996020484976
 21
-149.99377441406261
 31
0.0
  0
LINE
  5
64F
  8
DIMNSIONS
  6
CONTINUOUS
 62
     7
 10
-700.0
 20
48.982991200000022
 30
0.0
 11
-700.0
 21
-175.0000000000002
 31
0.0
  0
TEXT
  5
650
  8
DIMNSIONS
 62
     7
 10
-712.05555555555543
 20
-89.466837733333449
 30
0.0
 40
28.222222222222221
  1
224
 50
90.0
 41
0.8
 11
-740.27777777777771
 21
-89.466837733333449
 31
0.0
 73
     3
  0
TEXT
  5
651
  8
DIMNSIONS
 62
     7
 10
-300.0
 20
-7.7611111111110844
 30
0.0
 40
25.399999999999999
  1
67.3°
 41
0.8
 11
-300.0
 21
17.638888888888911
 31
0.0
 73
     3
  0
LINE
  5
652
  8
DIMNSIONS
  6
CONTINUOUS
 62
     7
 10
-617.81333003864938
 20
-234.27183854566809
 30
0.0
 11
-632.79853685214016
 21
-271.36152692546369
 31
0.0
  0
LINE
  5
653
  8
DIMNSIONS
  6
CONTINUOUS
 62
     7
 10
-402.78666996135092
 20
-234.27183854566809
 30
0.0
 11
-387.80146314785998
 21
-271.36152692546369
 31
0.0
  0
LINE
  5
654
  8
DIMNSIONS
 62
     7
 10
-395.2935950161783
 20
-252.817849834128
 30
0.0
 11
-415.96895039197108
 21
-268.3978476148713
 31
0.0
  0
LINE
  5
655
  8
DIMNSIONS
 62
     7
 10
-395.2935950161783
 20
-252.817849834128
 30
0.0
 11
-420.98897689425758
 21
-255.97284601526039
 31
0.0
  0
LINE
  5
656
  8
DIMNSIONS
 62
     7
 10
-625.30640498382195
 20
-252.81784983412791
 30
0.0
 11
-599.61102310574267
 21
-255.9728460152603
 31
0.0
  0
LINE
  5
657
  8
DIMNSIONS
 62
     7
 10
-625.30640498382195
 20
-252.81784983412791
 30
0.0
 11
-604.63104960802923
 21
-268.39784761487118
 31
0.0
  0
ARC
  5
658
  8
DIMNSIONS
  6
CONTINUOUS
 62
     7
 10
-510.30000000000013
 20
31.83299119999992
 30
0.0
 40
307.00582158770089
 50
248.0
 51
292.0
  0
TEXT
  5
659
  8
DIMNSIONS
 62
     7
 10
-545.57777777777812
 20
-308.3950526099232
 30
0.0
 40
28.222222222222221
  1
44°
 41
0.8
 11
-545.57777777777812
 21
-280.17283038770103
 31
0.0
 73
     3
  0
LINE
  5
65A
  8
DIMNSIONS
  6
CONTINUOUS
 62
     7
 10
-656.82500000000016
 20
-368.44434960000001
 30
0.0
 11
-720.0
 21
-368.44434960000001
 31
0.0
  0
LINE
  5
65B
  8
DIMNSIONS
  6
CONTINUOUS
 62
     7
 10
-656.82500000000016
 20
-749.99999999999955
 30
0.0
 11
-720.0
 21
-749.99999999999955
 31
0.0
  0
LINE
  5
65C
  8
DIMNSIONS
 62
     7
 10
-700.0
 20
-368.44434960000001
 30
0.0
 11
-693.2996020484976
 21
-393.45057518593762
 31
0.0
  0
LINE
  5
65D
  8
DIMNSIONS
 62
     7
 10
-700.0
 20
-368.44434960000001
 30
0.0
 11
-706.7003979515024
 21
-393.45057518593762
 31
0.0
  0
LINE
  5
65E
  8
DIMNSIONS
 62
     7
 10
-700.0
 20
-749.99999999999955
 30
0.0
 11
-706.7003979515024
 21
-724.99377441406216
 31
0.0
  0
LINE
  5
65F
  8
DIMNSIONS
 62
     7
 10
-700.0
 20
-749.99999999999955
 30
0.0
 11
-693.2996020484976
 21
-724.99377441406216
 31
0.0
  0
LINE
  5
660
  8
DIMNSIONS
  6
CONTINUOUS
 62
     7
 10
-700.0
 20
-368.44434960000001
 30
0.0
 11
-700.0
 21
-749.99999999999955
 31
0.0
  0
TEXT
  5
661
  8
DIMNSIONS
 62
     7
 10
-712.05555555555543
 20
-585.68050813333332
 30
0.0
 40
28.222222222222221
  1
382
 50
90.0
 41
0.8
 11
-740.27777777777771
 21
-585.68050813333332
 31
0.0
 73
     3
  0
LINE
  5
662
  8
DIMNSIONS
  6
CONTINUOUS
 62
     7
 10
-650.0
 20
-756.82500000000005
 30
0.0
 11
-650.0
 21
-870.0
 31
0.0
  0
LINE
  5
663
  8
DIMNSIONS
  6
CONTINUOUS
 62
     7
 10
-370.59999999999991
 20
-756.81999999999982
 30
0.0
 11
-370.59999999999991
 21
-870.0
 31
0.0
  0
LINE
  5
664
  8
DIMNSIONS
 62
     7
 10
-650.0
 20
-850.0
 30
0.0
 11
-624.99377441406273
 21
-843.2996020484976
 31
0.0
  0
LINE
  5
665
  8
DIMNSIONS
 62
     7
 10
-650.0
 20
-850.0
 30
0.0
 11
-624.99377441406273
 21
-856.70039795150228
 31
0.0
  0
LINE
  5
666
  8
DIMNSIONS
 62
     7
 10
-370.59999999999991
 20
-850.0
 30
0.0
 11
-395.60622558593741
 21
-856.70039795150228
 31
0.0
  0
LINE
  5
667
  8
DIMNSIONS
 62
     7
 10
-370.59999999999991
 20
-850.0
 30
0.0
 11
-395.60622558593741
 21
-843.2996020484976
 31
0.0
  0
LINE
  5
668
  8
DIMNSIONS
  6
CONTINUOUS
 62
     7
 10
-650.0
 20
-850.0
 30
0.0
 11
-370.59999999999991
 21
-850.0
 31
0.0
  0
TEXT
  5
669
  8
DIMNSIONS
 62
     7
 10
-536.75833333333344
 20
-837.94444444444434
 30
0.0
 40
28.222222222222221
  1
279
 41
0.8
 11
-536.75833333333344
 21
-809.72222222222206
 31
0.0
 73
     3
  0
LINE
  5
66A
  8
DIMNSIONS
  6
CONTINUOUS
 62
     7
 10
-59.48323655206157
 20
-469.79292138708439
 30
0.0
 11
-103.5107044513427
 21
-455.06153669845719
 31
0.0
  0
LINE
  5
66B
  8
DIMNSIONS
  6
CONTINUOUS
 62
     7
 10
-59.48323655206157
 20
-648.00924801366034
 30
0.0
 11
-103.5107044513426
 21
-662.7406327022876
 31
0.0
  0
LINE
  5
66C
  8
DIMNSIONS
 62
     7
 10
-84.544231347218556
 20
-656.39453957418561
 30
0.0
 11
-100.3311186897011
 21
-632.08486486780885
 31
0.0
  0
LINE
  5
66D
  8
DIMNSIONS
 62
     7
 10
-84.544231347218556
 20
-656.39453957418561
 30
0.0
 11
-86.061239479303055
 21
-627.44830004948608
 31
0.0
  0
LINE
  5
66E
  8
DIMNSIONS
 62
     7
 10
-84.544231347218727
 20
-461.40762982655912
 30
0.0
 11
-86.061239479303239
 21
-490.35386935125871
 31
0.0
  0
LINE
  5
66F
  8
DIMNSIONS
 62
     7
 10
-84.544231347218727
 20
-461.40762982655912
 30
0.0
 11
-100.3311186897013
 21
-485.71730453293571
 31
0.0
  0
ARC
  5
670
  8
DIMNSIONS
  6
CONTINUOUS
 62
     7
 10
206.83299120000041
 20
-558.90108470037205
 30
0.0
 40
307.25503993028963
 50
161.5
 51
198.5
  0
TEXT
  5
671
  8
DIMNSIONS
 62
     7
 10
-701.416015625
 20
-342.21493002862348
 30
0.0
 40
21.484375
  1
可変振り角度（スピーカ）横方向
 41
0.8
 11
-701.416015625
 21
-320.73055502862348
 31
0.0
 73
     3
  0
LINE
  5
672
  8
DIMNSIONS
  6
CONTINUOUS
 62
     7
 10
41.53000000000042
 20
-368.45999999999981
 30
0.0
 11
320.07413748502989
 21
-368.45999999999981
 31
0.0
  0
LINE
  5
673
  8
DIMNSIONS
  6
CONTINUOUS
 62
     7
 10
219.9238938808052
 20
-386.68811430991821
 30
0.0
 11
318.9002065631762
 21
-395.34742426342478
 31
0.0
  0
LINE
  5
674
  8
DIMNSIONS
 62
     7
 10
298.9763126823708
 20
-393.6043084822951
 30
0.0
 11
304.11831647795111
 21
-426.06964273510448
 31
0.0
  0
LINE
  5
675
  8
DIMNSIONS
 62
     7
 10
298.9763126823708
 20
-393.6043084822951
 30
0.0
 11
287.19675146929472
 21
-424.29111458537119
 31
0.0
  0
ARC
  5
676
  8
DIMNSIONS
  6
CONTINUOUS
 62
     7
 10
11.575705487583489
 20
-368.45999999999981
 30
0.0
 40
288.49843199744657
 50
345.06999891050901
 51
354.9999973365646
  0
LINE
  5
677
  8
DIMNSIONS
 62
     7
 10
300.07413748503029
 20
-368.45999999999981
 30
0.0
 11
291.56675062534219
 21
-336.7099999999997
 31
0.0
  0
LINE
  5
678
  8
DIMNSIONS
 62
     7
 10
300.07413748503029
 20
-368.45999999999981
 30
0.0
 11
308.5815243447185
 21
-336.7099999999997
 31
0.0
  0
ARC
  5
679
  8
DIMNSIONS
  6
CONTINUOUS
 62
     7
 10
11.575705487583489
 20
-368.45999999999981
 30
0.0
 40
288.4984319974468
 50
0.0
 51
12.50308277808068
  0
LINE
  5
67A
  8
DIMNSIONS
  6
CONTINUOUS
 62
     7
 10
0.0
 20
-753.72346949999985
 30
0.0
 11
0.0
 21
-870.0
 31
0.0
  0
LINE
  5
67B
  8
DIMNSIONS
  6
CONTINUOUS
 62
     7
 10
223.9829911999999
 20
-738.48715170297089
 30
0.0
 11
223.9829911999999
 21
-870.0
 31
0.0
  0
LINE
  5
67C
  8
DIMNSIONS
 62
     7
 10
0.0
 20
-850.0
 30
0.0
 11
25.0062255859375
 21
-843.2996020484976
 31
0.0
  0
LINE
  5
67D
  8
DIMNSIONS
 62
     7
 10
0.0
 20
-850.0
 30
0.0
 11
25.0062255859375
 21
-856.70039795150228
 31
0.0
  0
LINE
  5
67E
  8
DIMNSIONS
 62
     7
 10
223.9829911999999
 20
-850.0
 30
0.0
 11
198.9767656140624
 21
-856.70039795150228
 31
0.0
  0
LINE
  5
67F
  8
DIMNSIONS
 62
     7
 10
223.9829911999999
 20
-850.0
 30
0.0
 11
198.9767656140624
 21
-843.2996020484976
 31
0.0
  0
LINE
  5
680
  8
DIMNSIONS
  6
CONTINUOUS
 62
     7
 10
0.0
 20
-850.0
 30
0.0
 11
223.9829911999999
 21
-850.0
 31
0.0
  0
TEXT
  5
681
  8
DIMNSIONS
 62
     7
 10
85.533162266666665
 20
-837.94444444444434
 30
0.0
 40
28.222222222222221
  1
224
 41
0.8
 11
85.533162266666665
 21
-809.72222222222206
 31
0.0
 73
     3
  0
LINE
  5
682
  8
DIMNSIONS
  6
CONTINUOUS
 62
     7
 10
-416.0899999999998
 20
48.980000000000018
 30
0.0
 11
-303.74113208347762
 21
48.980000000000018
 31
0.0
  0
LINE
  5
683
  8
DIMNSIONS
 62
     7
 10
-323.74113208347762
 20
48.980000000000018
 30
0.0
 11
-315.23374522378941
 21
17.230000000000011
 31
0.0
  0
LINE
  5
684
  8
DIMNSIONS
 62
     7
 10
-323.74113208347762
 20
48.980000000000018
 30
0.0
 11
-332.24851894316572
 21
17.230000000000011
 31
0.0
  0
LINE
  5
685
  8
DIMNSIONS
 62
     7
 10
-395.80052395865948
 20
-59.273033394960983
 30
0.0
 11
-369.54935978654322
 21
-39.491362313149267
 31
0.0
  0
LINE
  5
686
  8
DIMNSIONS
 62
     7
 10
-395.80052395865948
 20
-59.273033394960983
 30
0.0
 11
-363.17551336578492
 21
-55.26718579486225
 31
0.0
  0
ARC
  5
687
  8
DIMNSIONS
  6
CONTINUOUS
 62
     7
 10
-441.08374875393571
 20
48.980000000000018
 30
0.0
 40
117.3426166704579
 50
292.69999999999987
 51
0.0
  0
LINE
  5
688
  8
DIMNSIONS
  6
CONTINUOUS
 62
     7
 10
-660.0
 20
575.0
 30
0.0
 11
-720.0
 21
575.0
 31
0.0
  0
LINE
  5
689
  8
DIMNSIONS
  6
CONTINUOUS
 62
     7
 10
-625.0
 20
479.60000000000008
 30
0.0
 11
-720.0
 21
479.60000000000008
 31
0.0
  0
LINE
  5
68A
  8
DIMNSIONS
 62
     7
 10
-700.0
 20
575.0
 30
0.0
 11
-693.2996020484976
 21
549.99377441406239
 31
0.0
  0
LINE
  5
68B
  8
DIMNSIONS
 62
     7
 10
-700.0
 20
575.0
 30
0.0
 11
-706.7003979515024
 21
549.99377441406239
 31
0.0
  0
LINE
  5
68C
  8
DIMNSIONS
 62
     7
 10
-700.0
 20
479.60000000000008
 30
0.0
 11
-706.7003979515024
 21
504.60622558593758
 31
0.0
  0
LINE
  5
68D
  8
DIMNSIONS
 62
     7
 10
-700.0
 20
479.60000000000008
 30
0.0
 11
-693.2996020484976
 21
504.60622558593758
 31
0.0
  0
LINE
  5
68E
  8
DIMNSIONS
  6
CONTINUOUS
 62
     7
 10
-700.0
 20
575.0
 30
0.0
 11
-700.0
 21
479.60000000000008
 31
0.0
  0
TEXT
  5
68F
  8
DIMNSIONS
 62
     7
 10
-712.05555555555543
 20
492.02222222222218
 30
0.0
 40
28.222222222222221
  1
95.4
 50
90.0
 41
0.8
 11
-740.27777777777771
 21
492.02222222222218
 31
0.0
 73
     3
  0
LINE
  5
690
  8
DIMNSIONS
  6
CONTINUOUS
 62
     7
 10
-656.0
 20
354.99999999999972
 30
0.0
 11
-720.0
 21
354.99999999999972
 31
0.0
  0
LINE
  5
691
  8
DIMNSIONS
  6
CONTINUOUS
 62
     7
 10
-656.0
 20
444.99999999999949
 30
0.0
 11
-720.0
 21
444.99999999999949
 31
0.0
  0
LINE
  5
692
  8
DIMNSIONS
 62
     7
 10
-700.0
 20
354.99999999999972
 30
0.0
 11
-706.7003979515024
 21
380.00622558593722
 31
0.0
  0
LINE
  5
693
  8
DIMNSIONS
 62
     7
 10
-700.0
 20
354.99999999999972
 30
0.0
 11
-693.2996020484976
 21
380.00622558593722
 31
0.0
  0
LINE
  5
694
  8
DIMNSIONS
 62
     7
 10
-700.0
 20
444.99999999999949
 30
0.0
 11
-693.2996020484976
 21
419.99377441406199
 31
0.0
  0
LINE
  5
695
  8
DIMNSIONS
 62
     7
 10
-700.0
 20
444.99999999999949
 30
0.0
 11
-706.7003979515024
 21
419.99377441406199
 31
0.0
  0
LINE
  5
696
  8
DIMNSIONS
  6
CONTINUOUS
 62
     7
 10
-700.0
 20
354.99999999999972
 30
0.0
 11
-700.0
 21
444.99999999999949
 31
0.0
  0
TEXT
  5
697
  8
DIMNSIONS
 62
     7
 10
-712.05555555555543
 20
382.36111111111069
 30
0.0
 40
28.222222222222221
  1
90
 50
90.0
 41
0.8
 11
-740.27777777777771
 21
382.36111111111069
 31
0.0
 73
     3
  0
LINE
  5
698
  8
DIMNSIONS
  6
CONTINUOUS
 62
     7
 10
-650.0
 20
347.99999999999972
 30
0.0
 11
-650.0
 21
280.0
 31
0.0
  0
LINE
  5
699
  8
DIMNSIONS
  6
CONTINUOUS
 62
     7
 10
-580.0
 20
347.99999999999972
 30
0.0
 11
-580.0
 21
280.0
 31
0.0
  0
LINE
  5
69A
  8
DIMNSIONS
 62
     7
 10
-650.0
 20
300.0
 30
0.0
 11
-624.99377441406273
 21
306.70039795150228
 31
0.0
  0
LINE
  5
69B
  8
DIMNSIONS
 62
     7
 10
-650.0
 20
300.0
 30
0.0
 11
-624.99377441406273
 21
293.2996020484976
 31
0.0
  0
LINE
  5
69C
  8
DIMNSIONS
 62
     7
 10
-580.0
 20
300.0
 30
0.0
 11
-605.0062255859375
 21
293.2996020484976
 31
0.0
  0
LINE
  5
69D
  8
DIMNSIONS
 62
     7
 10
-580.0
 20
300.0
 30
0.0
 11
-605.0062255859375
 21
306.70039795150228
 31
0.0
  0
LINE
  5
69E
  8
DIMNSIONS
  6
CONTINUOUS
 62
     7
 10
-650.0
 20
300.0
 30
0.0
 11
-580.0
 21
300.0
 31
0.0
  0
TEXT
  5
69F
  8
DIMNSIONS
 62
     7
 10
-632.63888888888903
 20
312.05555555555549
 30
0.0
 40
28.222222222222221
  1
70
 41
0.8
 11
-632.63888888888903
 21
340.27777777777771
 31
0.0
 73
     3
  0
TEXT
  5
6A0
  8
DIMNSIONS
 62
     7
 10
-350.0
 20
-696.484375
 30
0.0
 40
21.484375
  1
（スピーカ）縦方向
 41
0.8
 11
-350.0
 21
-675.0
 31
0.0
 73
     3
  0
TEXT
  5
6A1
  8
DIMNSIONS
 62
     7
 10
-350.0
 20
-658.056640625
 30
0.0
 40
21.484375
  1
可変振り角度
 41
0.8
 11
-350.0
 21
-636.572265625
 31
0.0
 73
     3
  0
LINE
  5
6A2
  8
DIMNSIONS
  6
CONTINUOUS
 62
     7
 10
-357.5
 20
434.4999999999996
 30
0.0
 11
-230.0
 21
434.4999999999996
 31
0.0
  0
LINE
  5
6A3
  8
DIMNSIONS
  6
CONTINUOUS
 62
     7
 10
-357.5
 20
365.49999999999972
 30
0.0
 11
-230.0
 21
365.49999999999972
 31
0.0
  0
LINE
  5
6A4
  8
DIMNSIONS
 62
     7
 10
-250.0
 20
434.4999999999996
 30
0.0
 11
-243.2996020484976
 21
409.49377441406199
 31
0.0
  0
LINE
  5
6A5
  8
DIMNSIONS
 62
     7
 10
-250.0
 20
434.4999999999996
 30
0.0
 11
-256.7003979515024
 21
409.49377441406199
 31
0.0
  0
LINE
  5
6A6
  8
DIMNSIONS
 62
     7
 10
-250.0
 20
365.49999999999972
 30
0.0
 11
-256.7003979515024
 21
390.50622558593722
 31
0.0
  0
LINE
  5
6A7
  8
DIMNSIONS
 62
     7
 10
-250.0
 20
365.49999999999972
 30
0.0
 11
-243.29960204849749
 21
390.50622558593722
 31
0.0
  0
LINE
  5
6A8
  8
DIMNSIONS
  6
CONTINUOUS
 62
     7
 10
-250.0
 20
434.4999999999996
 30
0.0
 11
-250.0
 21
365.49999999999972
 31
0.0
  0
TEXT
  5
6A9
  8
DIMNSIONS
 62
     7
 10
-262.0555555555556
 20
382.36111111111069
 30
0.0
 40
28.222222222222221
  1
69
 50
90.0
 41
0.8
 11
-290.27777777777783
 21
382.36111111111069
 31
0.0
 73
     3
  0
LINE
  5
6AA
  8
DIMNSIONS
  6
CONTINUOUS
 62
     7
 10
-342.5
 20
409.99999999999972
 30
0.0
 11
-342.5
 21
520.0
 31
0.0
  0
LINE
  5
6AB
  8
DIMNSIONS
  6
CONTINUOUS
 62
     7
 10
-392.50000000000051
 20
409.99999999999972
 30
0.0
 11
-392.50000000000051
 21
520.0
 31
0.0
  0
LINE
  5
6AC
  8
DIMNSIONS
  6
CONTINUOUS
 62
     7
 10
-392.50000000000051
 20
500.0
 30
0.0
 11
-342.5
 21
500.0
 31
0.0
  0
LINE
  5
6AD
  8
DIMNSIONS
 62
     7
 10
-342.5
 20
500.0
 30
0.0
 11
-317.4937744140625
 21
506.70039795150251
 31
0.0
  0
LINE
  5
6AE
  8
DIMNSIONS
 62
     7
 10
-342.5
 20
500.0
 30
0.0
 11
-317.4937744140625
 21
493.2996020484976
 31
0.0
  0
LINE
  5
6AF
  8
DIMNSIONS
  6
CONTINUOUS
 62
     7
 10
-342.5
 20
500.0
 30
0.0
 11
-292.5
 21
500.0
 31
0.0
  0
LINE
  5
6B0
  8
DIMNSIONS
 62
     7
 10
-392.50000000000051
 20
500.0
 30
0.0
 11
-417.50622558593801
 21
493.2996020484976
 31
0.0
  0
LINE
  5
6B1
  8
DIMNSIONS
 62
     7
 10
-392.50000000000051
 20
500.0
 30
0.0
 11
-417.50622558593801
 21
506.70039795150251
 31
0.0
  0
LINE
  5
6B2
  8
DIMNSIONS
  6
CONTINUOUS
 62
     7
 10
-392.50000000000051
 20
500.0
 30
0.0
 11
-442.50000000000051
 21
500.0
 31
0.0
  0
TEXT
  5
6B3
  8
DIMNSIONS
 62
     7
 10
-385.13888888888908
 20
522.05555555555566
 30
0.0
 40
28.222222222222221
  1
50
 41
0.8
 11
-385.13888888888908
 21
550.27777777777783
 31
0.0
 73
     3
  0
TEXT
  5
6B4
  8
DIMNSIONS
 62
     7
 10
250.0000000000004
 20
-336.05741451446539
 30
0.0
 40
28.222222222222221
  1
5°
 41
0.8
 11
250.0000000000004
 21
-307.83519229224322
 31
0.0
 73
     3
  0
TEXT
  5
6B5
  8
DIMNSIONS
 62
     7
 10
-175.0
 20
-59.524999999999999
 30
0.0
 40
25.399999999999999
  1
注1) スピーカの角度をつけた時の寸法です。
 41
0.8
 11
-175.0
 21
-34.125
 31
0.0
 73
     3
  0
LINE
  5
6B6
  8
DIMNSIONS
  6
CONTINUOUS
 62
     7
 10
21.534724200000252
 20
-749.98790959999974
 30
0.0
 11
345.0
 21
-749.98790959999974
 31
0.0
  0
LINE
  5
6B7
  8
DIMNSIONS
  6
CONTINUOUS
 62
     7
 10
294.98299120000041
 20
-558.90108470037239
 30
0.0
 11
345.0
 21
-558.90108470037239
 31
0.0
  0
LINE
  5
6B8
  8
DIMNSIONS
 62
     7
 10
325.0
 20
-749.98790959999974
 30
0.0
 11
318.2996020484976
 21
-724.98168401406224
 31
0.0
  0
LINE
  5
6B9
  8
DIMNSIONS
 62
     7
 10
325.0
 20
-749.98790959999974
 30
0.0
 11
331.70039795150228
 21
-724.98168401406224
 31
0.0
  0
LINE
  5
6BA
  8
DIMNSIONS
 62
     7
 10
325.0
 20
-558.90108470037239
 30
0.0
 11
331.70039795150228
 21
-583.90731028630989
 31
0.0
  0
LINE
  5
6BB
  8
DIMNSIONS
 62
     7
 10
325.0
 20
-558.90108470037239
 30
0.0
 11
318.2996020484976
 21
-583.90731028630989
 31
0.0
  0
LINE
  5
6BC
  8
DIMNSIONS
  6
CONTINUOUS
 62
     7
 10
325.0
 20
-749.98790959999974
 30
0.0
 11
325.0
 21
-558.90108470037239
 31
0.0
  0
TEXT
  5
6BD
  8
DIMNSIONS
 62
     7
 10
312.9444444444444
 20
-680.90283048351932
 30
0.0
 40
28.222222222222221
  1
191
 50
90.0
 41
0.8
 11
284.72222222222217
 21
-680.90283048351932
 31
0.0
 73
     3
  0
LINE
  5
6BE
  8
DIMNSIONS
 62
     7
 10
-369.59245749739148
 20
362.57055950365162
 30
0.0
 11
-378.87001230046371
 21
338.40170293907079
 31
0.0
  0
LINE
  5
6BF
  8
DIMNSIONS
 62
     7
 10
-369.59245749739148
 20
362.57055950365162
 30
0.0
 11
-389.71148392414477
 21
346.27849313983842
 31
0.0
  0
LINE
  5
6C0
  8
DIMNSIONS
  6
CONTINUOUS
 62
     7
 10
-369.59245749739148
 20
362.57055950365162
 30
0.0
 11
-450.0
 21
250.0
 31
0.0
  0
LINE
  5
6C1
  8
DIMNSIONS
  6
CONTINUOUS
 62
     7
 10
-450.0
 20
250.0
 30
0.0
 11
-266.52777777777771
 21
250.0
 31
0.0
  0
TEXT
  5
6C2
  8
DIMNSIONS
 62
     7
 10
-390.0
 20
262.05555555555549
 30
0.0
 40
28.222222222222221
  1
4-φ7.2
 41
0.8
 11
-390.0
 21
290.27777777777771
 31
0.0
 73
     3
  0
CIRCLE
  5
6C3
  8
DATA
  6
CONTINUOUS
 62
     7
 10
480.44999999999987
 20
-433.54000000000008
 30
0.0
 40
2.5
  0
TEXT
  5
6C4
  8
DATA
 62
     7
 10
600.0
 20
-1014.999765
 30
0.0
 40
25.399999999999999
  1
CONTROL 18S/ 18S-WH
 41
0.8
 11
600.0
 21
-989.59976499999993
 31
0.0
 73
     3
  0
TEXT
  5
6C5
  8
DATA
 62
     7
 10
600.0
 20
-942.49976499999991
 30
0.0
 40
25.399999999999999
  1
JBL
 41
0.8
 11
600.0
 21
-917.09976500000005
 31
0.0
 73
     3
  0
TEXT
  5
6C6
  8
DATA
 62
     7
 10
671.34839999999997
 20
-236.0965599999999
 30
0.0
 40
18.712959999999999
  1
コネクターパネル拡大図
 41
0.8
 11
671.34839999999997
 21
-217.3835999999998
 31
0.0
 73
     3
  0
LINE
  5
6C7
  8
DATA
  6
CONTINUOUS
 62
     7
 10
625.0
 20
-250.0000000000002
 30
0.0
 11
975.0
 21
-250.0000000000002
 31
0.0
  0
TEXT
  5
6C8
  8
DATA
 62
     7
 10
575.0
 20
-977.90432499999974
 30
0.0
 40
16.93335999999999
  1
サブウーファ
 41
0.8
 11
575.0
 21
-960.97096499999975
 31
0.0
 73
     3
  0
LINE
  5
6C9
  8
DATA
  6
CONTINUOUS
 62
     7
 10
11.53472420000025
 20
-749.98790959999974
 30
0.0
 11
221.0801466091998
 21
-731.65505083001904
 31
0.0
  0
LINE
  5
6CA
  8
DATA
  6
CONTINUOUS
 62
     7
 10
11.53472420000025
 20
-368.45641460000002
 30
0.0
 11
221.0801466091998
 21
-386.78927336998481
 31
0.0
  0
LINE
  5
6CB
  8
DATA
  6
CONTINUOUS
 62
     7
 10
-636.43177720000006
 20
-746.60175939999965
 30
0.0
 11
-384.16822280000002
 21
-746.60175939999965
 31
0.0
  0
LINE
  5
6CC
  8
DATA
  6
CONTINUOUS
 62
     7
 10
-624.93174940000017
 20
-741.14936999999975
 30
0.0
 11
-395.66825060000008
 21
-741.14936999999975
 31
0.0
  0
LINE
  5
6CD
  8
DATA
  6
CONTINUOUS
 62
     7
 10
-384.16822280000002
 20
-371.84261560000022
 30
0.0
 11
-636.43177720000006
 21
-371.84261560000022
 31
0.0
  0
LINE
  5
6CE
  8
DATA
  6
CONTINUOUS
 62
     7
 10
-382.00922280000032
 20
-377.95753859999979
 30
0.0
 11
-638.59077720000016
 21
-377.95753859999979
 31
0.0
  0
ARC
  5
6CF
  8
DATA
  6
CONTINUOUS
 62
     7
 10
-532.27072284500571
 20
-778.15126581053494
 30
0.0
 40
163.1548199771012
 50
47.413560435655747
 51
58.271070705690917
  0
ARC
  5
6D0
  8
DATA
  6
CONTINUOUS
 62
     7
 10
-416.24269075894551
 20
-475.7578518847838
 30
0.0
 40
51.053084925283777
 50
46.334467881648727
 51
126.7653983560093
  0
LINE
  5
6D1
  8
DATA
  6
CONTINUOUS
 62
     7
 10
-373.77999999999969
 20
-368.44434960000001
 30
0.0
 11
-646.82500000000016
 21
-368.44434960000001
 31
0.0
  0
LINE
  5
6D2
  8
DATA
  6
CONTINUOUS
 62
     7
 10
-646.82500000000016
 20
-750.0
 30
0.0
 11
-373.77999999999969
 21
-750.0
 31
0.0
  0
ARC
  5
6D3
  8
DATA
  6
CONTINUOUS
 62
     7
 10
-510.30000000000291
 20
3172.7985259703141
 30
0.0
 40
3345.2985259703141
 50
267.87458367191778
 51
272.12541632808222
  0
ARC
  5
6D4
  8
DATA
  6
CONTINUOUS
 62
     7
 10
-510.30000000000291
 20
3170.2985259703141
 30
0.0
 40
3345.2985259703141
 50
267.78477805530872
 51
272.21522194469128
  0
ARC
  5
6D5
  8
DATA
  6
CONTINUOUS
 62
     7
 10
-454.39814044794912
 20
28.98299119999956
 30
0.0
 40
19.999999999999979
 50
22.699999999999701
 51
90.0
  0
LINE
  5
6D6
  8
DATA
  6
CONTINUOUS
 62
     7
 10
-650.0
 20
-746.82500000000005
 30
0.0
 11
-650.0
 21
-371.61934960000019
 31
0.0
  0
LINE
  5
6D7
  8
DATA
  6
CONTINUOUS
 62
     7
 10
-639.60677720000012
 20
-375.0176156
 30
0.0
 11
-639.60677720000012
 21
-743.42675940000004
 31
0.0
  0
LINE
  5
6D8
  8
DATA
  6
CONTINUOUS
 62
     7
 10
-637.63174939999999
 20
-390.65753860000012
 30
0.0
 11
-637.63174939999999
 21
-728.44937000000004
 31
0.0
  0
LINE
  5
6D9
  8
DATA
  6
CONTINUOUS
 62
     7
 10
-638.59077720000016
 20
-377.95753859999979
 30
0.0
 11
-638.59077720000016
 21
-741.14936999999975
 31
0.0
  0
ARC
  5
6DA
  8
DATA
  6
CONTINUOUS
 62
     7
 10
-552.15825436120099
 20
-607.13272846654695
 30
0.0
 40
44.486463481937328
 50
28.225357611068532
 51
53.433108541052327
  0
ARC
  5
6DB
  8
DATA
  6
CONTINUOUS
 62
     7
 10
-636.43177720000006
 20
-743.42675940000004
 30
0.0
 40
3.1749999999999541
 50
180.0
 51
270.0
  0
ARC
  5
6DC
  8
DATA
  6
CONTINUOUS
 62
     7
 10
-646.82500000000016
 20
-746.82500000000005
 30
0.0
 40
3.1749999999999541
 50
180.0
 51
270.0
  0
LINE
  5
6DD
  8
DATA
  6
CONTINUOUS
 62
     7
 10
-638.59077720000016
 20
-741.14936999999975
 30
0.0
 11
-624.93174940000017
 21
-741.14936999999975
 31
0.0
  0
LINE
  5
6DE
  8
DATA
  6
CONTINUOUS
 62
     7
 10
-626.45574940000006
 20
-738.10136999999975
 30
0.0
 11
-633.82174940000004
 21
-738.10136999999975
 31
0.0
  0
LINE
  5
6DF
  8
DATA
  6
CONTINUOUS
 62
     7
 10
-634.5837494000001
 20
-737.3393699999998
 30
0.0
 11
-634.5837494000001
 21
-729.97336999999982
 31
0.0
  0
ARC
  5
6E0
  8
DATA
  6
CONTINUOUS
 62
     7
 10
-633.82174940000004
 20
-737.3393699999998
 30
0.0
 40
0.7619999999999437
 50
180.0
 51
270.0
  0
ARC
  5
6E1
  8
DATA
  6
CONTINUOUS
 62
     7
 10
-636.10774940000033
 20
-729.97336999999982
 30
0.0
 40
1.5240000000001139
 50
0.0
 51
90.0
  0
LINE
  5
6E2
  8
DATA
  6
CONTINUOUS
 62
     7
 10
-636.10774940000033
 20
-728.44937000000004
 30
0.0
 11
-637.63174939999999
 21
-728.44937000000004
 31
0.0
  0
ARC
  5
6E3
  8
DATA
  6
CONTINUOUS
 62
     7
 10
-626.45574940000006
 20
-739.62536999999986
 30
0.0
 40
1.5240000000001139
 50
0.0
 51
90.0
  0
LINE
  5
6E4
  8
DATA
  6
CONTINUOUS
 62
     7
 10
-624.93174940000017
 20
-741.14936999999975
 30
0.0
 11
-624.93174940000017
 21
-739.62536999999986
 31
0.0
  0
CIRCLE
  5
6E5
  8
DATA
  6
CONTINUOUS
 62
     7
 10
-624.90005020000012
 20
-710.14153259999978
 30
0.0
 40
5.999987999999802
  0
LINE
  5
6E6
  8
DATA
  6
CONTINUOUS
 62
     7
 10
-628.32905019999987
 20
-710.14153259999978
 30
0.0
 11
-621.47105020000004
 21
-710.14153259999978
 31
0.0
  0
LINE
  5
6E7
  8
DATA
  6
CONTINUOUS
 62
     7
 10
-624.9000501999999
 20
-713.57053259999998
 30
0.0
 11
-624.9000501999999
 21
-706.71253260000015
 31
0.0
  0
ARC
  5
6E8
  8
DATA
  6
CONTINUOUS
 62
     7
 10
-541.85588678081444
 20
-599.64954599944258
 30
0.0
 40
31.91643746571264
 50
348.5414146180525
 51
25.1343893067945
  0
ARC
  5
6E9
  8
DATA
  6
CONTINUOUS
 62
     7
 10
-490.20306048619199
 20
-610.06913164411856
 30
0.0
 40
20.77688261423463
 50
168.67769905050679
 51
251.41726616380899
  0
ARC
  5
6EA
  8
DATA
  6
CONTINUOUS
 62
     7
 10
-471.48154637461272
 20
-571.33732618606996
 30
0.0
 40
63.685017251833422
 50
246.55079004985711
 51
267.39897302578822
  0
ARC
  5
6EB
  8
DATA
  6
CONTINUOUS
 62
     7
 10
-471.32102476655962
 20
-705.93098890879537
 30
0.0
 40
71.039786601390404
 50
69.521563955829919
 51
92.461163536995869
  0
CIRCLE
  5
6EC
  8
DATA
  6
CONTINUOUS
 62
     7
 10
-624.90005020000012
 20
-559.47586999999987
 30
0.0
 40
5.999987999999802
  0
CIRCLE
  5
6ED
  8
DATA
  6
CONTINUOUS
 62
     7
 10
-624.90005020000012
 20
-408.81018200000028
 30
0.0
 40
5.999987999999802
  0
ARC
  5
6EE
  8
DATA
  6
CONTINUOUS
 62
     7
 10
-636.43177720000006
 20
-375.0176156
 30
0.0
 40
3.175000000000181
 50
90.0
 51
180.0
  0
ARC
  5
6EF
  8
DATA
  6
CONTINUOUS
 62
     7
 10
-646.82500000000016
 20
-371.61934960000019
 30
0.0
 40
3.175000000000181
 50
90.0
 51
180.0
  0
ARC
  5
6F0
  8
DATA
  6
CONTINUOUS
 62
     7
 10
-636.10774940000033
 20
-389.13353860000018
 30
0.0
 40
1.523999999999887
 50
270.0
 51
0.0
  0
ARC
  5
6F1
  8
DATA
  6
CONTINUOUS
 62
     7
 10
-626.45574940000006
 20
-379.48153860000019
 30
0.0
 40
1.523999999999887
 50
270.0
 51
0.0
  0
ARC
  5
6F2
  8
DATA
  6
CONTINUOUS
 62
     7
 10
-633.82174940000004
 20
-381.76753860000031
 30
0.0
 40
0.7620000000001709
 50
90.0
 51
180.0
  0
LINE
  5
6F3
  8
DATA
  6
CONTINUOUS
 62
     7
 10
-634.5837494000001
 20
-381.76753860000031
 30
0.0
 11
-634.5837494000001
 21
-389.13353860000018
 31
0.0
  0
LINE
  5
6F4
  8
DATA
  6
CONTINUOUS
 62
     7
 10
-626.45574940000006
 20
-381.00553860000008
 30
0.0
 11
-633.82174940000004
 21
-381.00553860000008
 31
0.0
  0
LINE
  5
6F5
  8
DATA
  6
CONTINUOUS
 62
     7
 10
-624.93174940000017
 20
-377.95753859999979
 30
0.0
 11
-624.93174940000017
 21
-379.48153860000019
 31
0.0
  0
LINE
  5
6F6
  8
DATA
  6
CONTINUOUS
 62
     7
 10
-636.10774940000033
 20
-390.65753860000012
 30
0.0
 11
-637.63174939999999
 21
-390.65753860000012
 31
0.0
  0
LINE
  5
6F7
  8
DATA
  6
CONTINUOUS
 62
     7
 10
-573.80000000000018
 20
-392.29472099999992
 30
0.0
 11
-573.80000000000018
 21
-519.29472099999987
 31
0.0
  0
LINE
  5
6F8
  8
DATA
  6
CONTINUOUS
 62
     7
 10
-446.80000000000013
 20
-392.29472099999992
 30
0.0
 11
-573.80000000000018
 21
-392.29472099999992
 31
0.0
  0
LINE
  5
6F9
  8
DATA
  6
CONTINUOUS
 62
     7
 10
-628.32905019999987
 20
-408.81018200000028
 30
0.0
 11
-621.47105020000004
 21
-408.81018200000028
 31
0.0
  0
LINE
  5
6FA
  8
DATA
  6
CONTINUOUS
 62
     7
 10
-624.9000501999999
 20
-412.23918200000048
 30
0.0
 11
-624.9000501999999
 21
-405.38118200000031
 31
0.0
  0
LINE
  5
6FB
  8
DATA
  6
CONTINUOUS
 62
     7
 10
-628.32905019999987
 20
-559.47586999999987
 30
0.0
 11
-621.47105020000004
 21
-559.47586999999987
 31
0.0
  0
LINE
  5
6FC
  8
DATA
  6
CONTINUOUS
 62
     7
 10
-624.9000501999999
 20
-562.90487000000007
 30
0.0
 11
-624.9000501999999
 21
-556.04687000000035
 31
0.0
  0
ARC
  5
6FD
  8
DATA
  6
CONTINUOUS
 62
     7
 10
-393.36223489123267
 20
-492.52156665975849
 30
0.0
 40
78.616149785771455
 50
132.8225574465512
 51
153.16673121462051
  0
ARC
  5
6FE
  8
DATA
  6
CONTINUOUS
 62
     7
 10
-524.64931806623588
 20
-427.73296869849321
 30
0.0
 40
67.795253657732019
 50
316.89693325064422
 51
334.39227825475831
  0
ARC
  5
6FF
  8
DATA
  6
CONTINUOUS
 62
     7
 10
-492.03921448155961
 20
-455.39018820062682
 30
0.0
 40
25.174124335384711
 50
268.90567570146658
 51
312.13544093184862
  0
ARC
  5
700
  8
DATA
  6
CONTINUOUS
 62
     7
 10
-698.78051707011014
 20
2754.9362255052361
 30
0.0
 40
3242.0637595139679
 50
273.19641134469259
 51
273.64762839709562
  0
ARC
  5
701
  8
DATA
  6
CONTINUOUS
 62
     7
 10
-537.77307110496304
 20
-549.84029149782305
 30
0.0
 40
8.7721215229101688
 50
144.08720316198759
 51
223.49701702916909
  0
ARC
  5
702
  8
DATA
  6
CONTINUOUS
 62
     7
 10
-438.9859516814322
 20
-449.46340961180903
 30
0.0
 40
149.60199098116891
 50
225.34241172928211
 51
234.59652679223279
  0
LINE
  5
703
  8
DATA
  6
CONTINUOUS
 62
     7
 10
-446.80000000000013
 20
-434.85958380000028
 30
0.0
 11
-446.80000000000013
 21
-392.29472099999992
 31
0.0
  0
ARC
  5
704
  8
DATA
  6
CONTINUOUS
 62
     7
 10
-514.16792441824873
 20
-514.0550819498269
 30
0.0
 40
32.200958117617148
 50
96.846125917370756
 51
140.6612072061784
  0
ARC
  5
705
  8
DATA
  6
CONTINUOUS
 62
     7
 10
-526.27050691180091
 20
-507.29432271759538
 30
0.0
 40
18.715148119967171
 50
133.16052907392671
 51
219.88233745677161
  0
ARC
  5
706
  8
DATA
  6
CONTINUOUS
 62
     7
 10
-556.50869436177959
 20
-530.12345925843385
 30
0.0
 40
19.218137945256519
 50
352.217146712111
 51
34.295730423472079
  0
ARC
  5
707
  8
DATA
  6
CONTINUOUS
 62
     7
 10
-586.36482559561091
 20
-510.73159866587611
 30
0.0
 40
53.61615466395002
 50
320.69457336661151
 51
335.78141005090163
  0
LINE
  5
708
  8
DATA
  6
CONTINUOUS
 62
     7
 10
-573.80000000000018
 20
-519.29472099999987
 30
0.0
 11
-540.63181640000494
 21
-519.29472099999987
 31
0.0
  0
LINE
  5
709
  8
DATA
  6
CONTINUOUS
 62
     7
 10
-526.30250000000012
 20
-531.44434960000012
 30
0.0
 11
-526.30250000000012
 21
-499.44434960000001
 31
0.0
  0
LINE
  5
70A
  8
DATA
  6
CONTINUOUS
 62
     7
 10
-526.30250000000012
 20
-499.44434960000001
 30
0.0
 11
-494.30249999999972
 21
-499.44434960000001
 31
0.0
  0
LINE
  5
70B
  8
DATA
  6
CONTINUOUS
 62
     7
 10
-494.30249999999972
 20
-499.44434960000001
 30
0.0
 11
-494.30249999999972
 21
-531.44434960000012
 31
0.0
  0
LINE
  5
70C
  8
DATA
  6
CONTINUOUS
 62
     7
 10
-494.30249999999972
 20
-531.44434960000012
 30
0.0
 11
-526.30250000000012
 21
-531.44434960000012
 31
0.0
  0
LINE
  5
70D
  8
DATA
  6
CONTINUOUS
 62
     7
 10
-526.30250000000012
 20
-504.94434960000012
 30
0.0
 11
-494.30249999999972
 21
-504.94434960000012
 31
0.0
  0
TEXT
  5
70E
  8
DATA
 62
     7
 10
-524.80250000000012
 20
-503.44434960000001
 30
0.0
 40
3.0078125
  1
CONTROL
 41
0.8
 11
-524.80250000000012
 21
-500.43653710000001
 31
0.0
 73
     3
  0
TEXT
  5
70F
  8
DATA
 62
     7
 10
-501.73973458703358
 20
-503.44434960000001
 30
0.0
 40
3.0078125
  1
18S
 41
0.8
 11
-501.73973458703358
 21
-500.43653710000001
 31
0.0
 73
     3
  0
LINE
  5
710
  8
DATA
  6
CONTINUOUS
 62
     7
 10
-639.60677720000012
 20
-172.50000000000111
 30
0.0
 11
-639.60677720000012
 21
-168.83024586837399
 31
0.0
  0
ARC
  5
711
  8
DATA
  6
CONTINUOUS
 62
     7
 10
-633.90351816912153
 20
-157.7071691165622
 30
0.0
 40
12.49999999999986
 50
185.3000000000024
 51
267.87458367191152
  0
LINE
  5
712
  8
DATA
  6
CONTINUOUS
 62
     7
 10
-649.99999999999977
 20
-119.5168250860481
 30
0.0
 11
-646.35007689642862
 21
-158.86180145964431
 31
0.0
  0
ARC
  5
713
  8
DATA
  6
CONTINUOUS
 62
     7
 10
-566.20185955205102
 20
28.982991200000001
 30
0.0
 40
20.0
 50
90.0
 51
157.2999999999997
  0
LINE
  5
714
  8
DATA
  6
CONTINUOUS
 62
     7
 10
-650.0
 20
-119.5168250860463
 30
0.0
 11
-584.65262134117597
 21
36.701112046486728
 31
0.0
  0
LINE
  5
715
  8
DATA
  6
CONTINUOUS
 62
     7
 10
-566.20185955205102
 20
48.982991200000228
 30
0.0
 11
-454.39814044794912
 21
48.98299119999956
 31
0.0
  0
LINE
  5
716
  8
DATA
  6
CONTINUOUS
 62
     7
 10
-380.99322280000013
 20
-743.42675940000004
 30
0.0
 11
-380.99322280000013
 21
-375.0176156
 31
0.0
  0
LINE
  5
717
  8
DATA
  6
CONTINUOUS
 62
     7
 10
-370.59999999999991
 20
-746.81999999999982
 30
0.0
 11
-370.59999999999991
 21
-371.62434960000002
 31
0.0
  0
LINE
  5
718
  8
DATA
  6
CONTINUOUS
 62
     7
 10
12.67272040000034
 20
-372.18088010000002
 30
0.0
 11
12.67272040000034
 21
-746.26346949999981
 31
0.0
  0
LINE
  5
719
  8
DATA
  6
CONTINUOUS
 62
     7
 10
0.0000000000004547
 20
-743.72346949999985
 30
0.0
 11
0.0000000000004547
 21
-374.72088009999987
 31
0.0
  0
LINE
  5
71A
  8
DATA
  6
CONTINUOUS
 62
     7
 10
26.496238600000201
 20
-748.67894600000011
 30
0.0
 11
26.496238600000648
 21
-369.76537819999987
 31
0.0
  0
LINE
  5
71B
  8
DATA
  6
CONTINUOUS
 62
     7
 10
55.483174913953448
 20
-372.30140787561157
 30
0.0
 11
55.483174913953007
 21
-746.14291632438903
 31
0.0
  0
ARC
  5
71C
  8
DATA
  6
CONTINUOUS
 62
     7
 10
-384.16822280000002
 20
-743.42675940000004
 30
0.0
 40
3.1749999999997272
 50
270.0
 51
0.0
  0
LINE
  5
71D
  8
DATA
  6
CONTINUOUS
 62
     7
 10
-386.01625060000009
 20
-737.3393699999998
 30
0.0
 11
-386.01625060000009
 21
-729.97336999999982
 31
0.0
  0
ARC
  5
71E
  8
DATA
  6
CONTINUOUS
 62
     7
 10
-394.1442506000003
 20
-739.62536999999986
 30
0.0
 40
1.523999999999887
 50
90.0
 51
180.0
  0
ARC
  5
71F
  8
DATA
  6
CONTINUOUS
 62
     7
 10
-386.77825060000032
 20
-737.3393699999998
 30
0.0
 40
0.7619999999997164
 50
270.0
 51
0.0
  0
LINE
  5
720
  8
DATA
  6
CONTINUOUS
 62
     7
 10
-382.00922280000032
 20
-741.14936999999975
 30
0.0
 11
-382.00922280000032
 21
-737.97437000000014
 31
0.0
  0
LINE
  5
721
  8
DATA
  6
CONTINUOUS
 62
     7
 10
-385.1842228000005
 20
-741.14936999999975
 30
0.0
 11
-382.00922280000032
 21
-741.14936999999975
 31
0.0
  0
LINE
  5
722
  8
DATA
  6
CONTINUOUS
 62
     7
 10
-395.66825060000008
 20
-741.14936999999975
 30
0.0
 11
-385.1842228000005
 21
-741.14936999999975
 31
0.0
  0
LINE
  5
723
  8
DATA
  6
CONTINUOUS
 62
     7
 10
-395.66825060000008
 20
-741.14936999999975
 30
0.0
 11
-395.66825060000008
 21
-739.62536999999986
 31
0.0
  0
LINE
  5
724
  8
DATA
  6
CONTINUOUS
 62
     7
 10
-394.1442506000003
 20
-738.10136999999975
 30
0.0
 11
-386.77825060000032
 21
-738.10136999999975
 31
0.0
  0
CIRCLE
  5
725
  8
DATA
  6
CONTINUOUS
 62
     7
 10
-395.69994980000052
 20
-710.14153259999978
 30
0.0
 40
5.9999880000000303
  0
ARC
  5
726
  8
DATA
  6
CONTINUOUS
 62
     7
 10
-384.4922506000002
 20
-729.97336999999982
 30
0.0
 40
1.523999999999887
 50
90.0
 51
180.0
  0
LINE
  5
727
  8
DATA
  6
CONTINUOUS
 62
     7
 10
-384.4922506000002
 20
-728.44937000000004
 30
0.0
 11
-382.96825059999992
 21
-728.44937000000004
 31
0.0
  0
LINE
  5
728
  8
DATA
  6
CONTINUOUS
 62
     7
 10
-399.1289498000001
 20
-710.14153259999978
 30
0.0
 11
-392.27094979999993
 21
-710.14153259999978
 31
0.0
  0
LINE
  5
729
  8
DATA
  6
CONTINUOUS
 62
     7
 10
-395.69994980000001
 20
-713.57053259999998
 30
0.0
 11
-395.69994980000001
 21
-706.71253260000015
 31
0.0
  0
ARC
  5
72A
  8
DATA
  6
CONTINUOUS
 62
     7
 10
-403.23103540301548
 20
-636.33179010600293
 30
0.0
 40
28.585404946098599
 50
229.69551989398499
 51
269.91393144691222
  0
LINE
  5
72B
  8
DATA
  6
CONTINUOUS
 62
     7
 10
-382.96825059999992
 20
-728.44937000000004
 30
0.0
 11
-382.96825059999992
 21
-656.40900080012182
 31
0.0
  0
ARC
  5
72C
  8
DATA
  6
CONTINUOUS
 62
     7
 10
-407.29006306699603
 20
-626.84722328962073
 30
0.0
 40
38.281186649059073
 50
276.02199330509723
 51
313.3882903520099
  0
LINE
  5
72D
  8
DATA
  6
CONTINUOUS
 62
     7
 10
-382.00922280000032
 20
-737.97437000000014
 30
0.0
 11
-382.00922280000032
 21
-655.59315111696196
 31
0.0
  0
ARC
  5
72E
  8
DATA
  6
CONTINUOUS
 62
     7
 10
-373.77999999999969
 20
-746.81999999999982
 30
0.0
 40
3.180000000000291
 50
270.0
 51
0.0
  0
ARC
  5
72F
  8
DATA
  6
CONTINUOUS
 62
     7
 10
2.5399999999999641
 20
-743.72346949999985
 30
0.0
 40
2.5399999999999641
 50
180.0
 51
270.0
  0
LINE
  5
730
  8
DATA
  6
CONTINUOUS
 62
     7
 10
12.67272040000034
 20
-746.26346949999981
 30
0.0
 11
2.5399999999999641
 21
-746.26346949999981
 31
0.0
  0
ARC
  5
731
  8
DATA
  6
CONTINUOUS
 62
     7
 10
11.257991200000101
 20
-746.82500000000005
 30
0.0
 40
3.1749999999997272
 50
180.0
 51
275.00000000000421
  0
LINE
  5
732
  8
DATA
  6
CONTINUOUS
 62
     7
 10
8.0829912000003752
 20
-746.82500000000005
 30
0.0
 11
8.0829912000003752
 21
-746.26346949999981
 31
0.0
  0
ARC
  5
733
  8
DATA
  6
CONTINUOUS
 62
     7
 10
-384.16822280000002
 20
-375.0176156
 30
0.0
 40
3.1749999999997272
 50
0.0
 51
90.0
  0
ARC
  5
734
  8
DATA
  6
CONTINUOUS
 62
     7
 10
-386.77825060000032
 20
-381.76753860000031
 30
0.0
 40
0.7620000000001709
 50
0.0
 51
90.0
  0
ARC
  5
735
  8
DATA
  6
CONTINUOUS
 62
     7
 10
-394.1442506000003
 20
-379.48153860000019
 30
0.0
 40
1.523999999999887
 50
180.0
 51
270.0
  0
ARC
  5
736
  8
DATA
  6
CONTINUOUS
 62
     7
 10
-384.4922506000002
 20
-389.13353860000018
 30
0.0
 40
1.523999999999887
 50
180.0
 51
270.0
  0
LINE
  5
737
  8
DATA
  6
CONTINUOUS
 62
     7
 10
-395.66825060000008
 20
-377.95753859999979
 30
0.0
 11
-395.66825060000008
 21
-379.48153860000019
 31
0.0
  0
LINE
  5
738
  8
DATA
  6
CONTINUOUS
 62
     7
 10
-394.1442506000003
 20
-381.00553860000008
 30
0.0
 11
-386.77825060000032
 21
-381.00553860000008
 31
0.0
  0
LINE
  5
739
  8
DATA
  6
CONTINUOUS
 62
     7
 10
-386.01625060000009
 20
-381.76753860000031
 30
0.0
 11
-386.01625060000009
 21
-389.13353860000018
 31
0.0
  0
LINE
  5
73A
  8
DATA
  6
CONTINUOUS
 62
     7
 10
-384.4922506000002
 20
-390.65753860000012
 30
0.0
 11
-382.96825059999992
 21
-390.65753860000012
 31
0.0
  0
CIRCLE
  5
73B
  8
DATA
  6
CONTINUOUS
 62
     7
 10
-395.69994980000052
 20
-408.81018200000028
 30
0.0
 40
5.9999880000000303
  0
LINE
  5
73C
  8
DATA
  6
CONTINUOUS
 62
     7
 10
-399.1289498000001
 20
-408.81018200000028
 30
0.0
 11
-392.27094979999993
 21
-408.81018200000028
 31
0.0
  0
LINE
  5
73D
  8
DATA
  6
CONTINUOUS
 62
     7
 10
-395.69994980000001
 20
-412.23918200000048
 30
0.0
 11
-395.69994980000001
 21
-405.38118200000031
 31
0.0
  0
LINE
  5
73E
  8
DATA
  6
CONTINUOUS
 62
     7
 10
-382.00922280000032
 20
-437.88322776926202
 30
0.0
 11
-382.00922280000032
 21
-377.95753859999979
 31
0.0
  0
LINE
  5
73F
  8
DATA
  6
CONTINUOUS
 62
     7
 10
-382.96825059999992
 20
-437.03797181656842
 30
0.0
 11
-382.96825059999992
 21
-390.65753860000012
 31
0.0
  0
ARC
  5
740
  8
DATA
  6
CONTINUOUS
 62
     7
 10
-373.77999999999969
 20
-371.62434960000002
 30
0.0
 40
3.1799999999998358
 50
0.0
 51
90.0
  0
LINE
  5
741
  8
DATA
  6
CONTINUOUS
 62
     7
 10
-380.99322279999973
 20
-172.5000000000002
 30
0.0
 11
-380.99322279999973
 21
-168.83024586837399
 31
0.0
  0
ARC
  5
742
  8
DATA
  6
CONTINUOUS
 62
     7
 10
-386.69648183087838
 20
-157.7071691165622
 30
0.0
 40
12.49999999999971
 50
272.12541632808222
 51
354.69999999999959
  0
LINE
  5
743
  8
DATA
  6
CONTINUOUS
 62
     7
 10
-374.24992310357118
 20
-158.86180145964431
 30
0.0
 11
-370.59999999999991
 21
-119.5168250860481
 31
0.0
  0
LINE
  5
744
  8
DATA
  6
CONTINUOUS
 62
     7
 10
-435.94737865882422
 20
36.701112046486053
 30
0.0
 11
-370.59999999999991
 21
-119.5168250860481
 31
0.0
  0
ARC
  5
745
  8
DATA
  6
CONTINUOUS
 62
     7
 10
2.5399999999999641
 20
-374.72088009999987
 30
0.0
 40
2.5399999999999641
 50
90.0
 51
180.0
  0
LINE
  5
746
  8
DATA
  6
CONTINUOUS
 62
     7
 10
2.5399999999999641
 20
-372.18088010000002
 30
0.0
 11
12.67272040000034
 21
-372.18088010000002
 31
0.0
  0
ARC
  5
747
  8
DATA
  6
CONTINUOUS
 62
     7
 10
11.257991200000101
 20
-371.61934959999979
 30
0.0
 40
3.174999999999887
 50
84.999999999995694
 51
180.0
  0
LINE
  5
748
  8
DATA
  6
CONTINUOUS
 62
     7
 10
8.0829912000003752
 20
-371.61934959999979
 30
0.0
 11
8.0829912000003752
 21
-372.18088010000002
 31
0.0
  0
LINE
  5
749
  8
DATA
  6
CONTINUOUS
 62
     7
 10
-650.0
 20
174.99999999999969
 30
0.0
 11
-250.0
 21
174.99999999999969
 31
0.0
  0
LINE
  5
74A
  8
DATA
  6
CONTINUOUS
 62
     7
 10
-620.5
 20
513.19969418674214
 30
0.0
 11
-620.5
 21
548.0
 31
0.0
  0
LINE
  5
74B
  8
DATA
  6
CONTINUOUS
 62
     7
 10
-609.49999999999966
 20
513.19969418674214
 30
0.0
 11
-609.49999999999966
 21
548.0
 31
0.0
  0
LINE
  5
74C
  8
DATA
  6
CONTINUOUS
 62
     7
 10
-510.80030581325758
 20
394.4999999999996
 30
0.0
 11
-476.0
 21
394.4999999999996
 31
0.0
  0
LINE
  5
74D
  8
DATA
  6
CONTINUOUS
 62
     7
 10
-476.0
 20
405.4999999999996
 30
0.0
 11
-510.80030581325758
 21
405.4999999999996
 31
0.0
  0
LINE
  5
74E
  8
DATA
  6
CONTINUOUS
 62
     7
 10
-581.0
 20
357.99999999999972
 30
0.0
 11
-581.0
 21
441.9999999999996
 31
0.0
  0
LINE
  5
74F
  8
DATA
  6
CONTINUOUS
 62
     7
 10
-580.0
 20
357.99999999999972
 30
0.0
 11
-580.0
 21
442.0
 31
0.0
  0
LINE
  5
750
  8
DATA
  6
CONTINUOUS
 62
     7
 10
-650.0
 20
357.99999999999972
 30
0.0
 11
-650.0
 21
441.9999999999996
 31
0.0
  0
LINE
  5
751
  8
DATA
  6
CONTINUOUS
 62
     7
 10
-649.0
 20
357.99999999999972
 30
0.0
 11
-649.0
 21
441.9999999999996
 31
0.0
  0
LINE
  5
752
  8
DATA
  6
CONTINUOUS
 62
     7
 10
-581.0
 20
409.87956810631198
 30
0.0
 11
-590.0
 21
409.87956810631198
 31
0.0
  0
LINE
  5
753
  8
DATA
  6
CONTINUOUS
 62
     7
 10
-581.0
 20
408.74999999999949
 30
0.0
 11
-590.0
 21
408.74999999999949
 31
0.0
  0
LINE
  5
754
  8
DATA
  6
CONTINUOUS
 62
     7
 10
-581.0
 20
391.2499999999996
 30
0.0
 11
-590.0
 21
391.2499999999996
 31
0.0
  0
LINE
  5
755
  8
DATA
  6
CONTINUOUS
 62
     7
 10
-590.0
 20
390.12043189368751
 30
0.0
 11
-581.0
 21
390.12043189368751
 31
0.0
  0
ARC
  5
756
  8
DATA
  6
CONTINUOUS
 62
     7
 10
-590.0
 20
399.99999999999972
 30
0.0
 40
9.8795681063122878
 50
210.63293386126011
 51
270.0
  0
ARC
  5
757
  8
DATA
  6
CONTINUOUS
 62
     7
 10
-590.0
 20
399.99999999999972
 30
0.0
 40
9.8795681063122647
 50
90.0
 51
149.3670661387398
  0
ARC
  5
758
  8
DATA
  6
CONTINUOUS
 62
     7
 10
-590.0
 20
399.99999999999972
 30
0.0
 40
8.7499999999999822
 50
202.56742262803559
 51
270.0
  0
ARC
  5
759
  8
DATA
  6
CONTINUOUS
 62
     7
 10
-590.0
 20
399.99999999999972
 30
0.0
 40
8.75
 50
90.0
 51
157.4325773719643
  0
CIRCLE
  5
75A
  8
DATA
  6
CONTINUOUS
 62
     7
 10
-589.99999999999966
 20
399.99999999999972
 30
0.0
 40
3.5
  0
ARC
  5
75B
  8
DATA
  6
CONTINUOUS
 62
     7
 10
-584.0
 20
357.99999999999972
 30
0.0
 40
3.0
 50
270.0
 51
0.0
  0
ARC
  5
75C
  8
DATA
  6
CONTINUOUS
 62
     7
 10
-583.0
 20
357.99999999999972
 30
0.0
 40
3.0
 50
270.0
 51
0.0
  0
LINE
  5
75D
  8
DATA
  6
CONTINUOUS
 62
     7
 10
-605.12043189368751
 20
365.49999999999972
 30
0.0
 11
-605.12043189368751
 21
355.0
 31
0.0
  0
LINE
  5
75E
  8
DATA
  6
CONTINUOUS
 62
     7
 10
-606.25
 20
365.49999999999972
 30
0.0
 11
-606.25
 21
354.99999999999972
 31
0.0
  0
ARC
  5
75F
  8
DATA
  6
CONTINUOUS
 62
     7
 10
-640.0
 20
399.99999999999972
 30
0.0
 40
9.8795681063121723
 50
30.63293386125898
 51
90.0
  0
ARC
  5
760
  8
DATA
  6
CONTINUOUS
 62
     7
 10
-640.0
 20
399.99999999999972
 30
0.0
 40
9.8795681063122647
 50
270.0
 51
329.367066138741
  0
ARC
  5
761
  8
DATA
  6
CONTINUOUS
 62
     7
 10
-640.0
 20
399.99999999999972
 30
0.0
 40
8.7499999999998082
 50
22.567422628032901
 51
90.0
  0
ARC
  5
762
  8
DATA
  6
CONTINUOUS
 62
     7
 10
-640.0
 20
399.99999999999972
 30
0.0
 40
8.75
 50
270.0
 51
337.432577371967
  0
LINE
  5
763
  8
DATA
  6
CONTINUOUS
 62
     7
 10
-640.00000000000011
 20
409.87956810631198
 30
0.0
 11
-648.99999999999966
 21
409.87956810631198
 31
0.0
  0
LINE
  5
764
  8
DATA
  6
CONTINUOUS
 62
     7
 10
-640.0
 20
408.74999999999949
 30
0.0
 11
-649.0
 21
408.74999999999949
 31
0.0
  0
LINE
  5
765
  8
DATA
  6
CONTINUOUS
 62
     7
 10
-640.0
 20
391.2499999999996
 30
0.0
 11
-649.0
 21
391.2499999999996
 31
0.0
  0
LINE
  5
766
  8
DATA
  6
CONTINUOUS
 62
     7
 10
-640.0
 20
390.12043189368751
 30
0.0
 11
-649.0
 21
390.12043189368751
 31
0.0
  0
CIRCLE
  5
767
  8
DATA
  6
CONTINUOUS
 62
     7
 10
-639.99999999999966
 20
399.99999999999972
 30
0.0
 40
3.5
  0
ARC
  5
768
  8
DATA
  6
CONTINUOUS
 62
     7
 10
-647.00000000000011
 20
357.99999999999972
 30
0.0
 40
3.0
 50
180.0
 51
270.0
  0
ARC
  5
769
  8
DATA
  6
CONTINUOUS
 62
     7
 10
-646.0
 20
357.99999999999972
 30
0.0
 40
3.0
 50
180.0
 51
270.0
  0
LINE
  5
76A
  8
DATA
  6
CONTINUOUS
 62
     7
 10
-623.74999999999989
 20
365.49999999999972
 30
0.0
 11
-623.74999999999989
 21
354.99999999999972
 31
0.0
  0
LINE
  5
76B
  8
DATA
  6
CONTINUOUS
 62
     7
 10
-624.87956810631204
 20
365.49999999999972
 30
0.0
 11
-624.87956810631204
 21
354.99999999999972
 31
0.0
  0
CIRCLE
  5
76C
  8
DATA
  6
CONTINUOUS
 62
     7
 10
-615.0
 20
365.49999999999972
 30
0.0
 40
3.5
  0
ARC
  5
76D
  8
DATA
  6
CONTINUOUS
 62
     7
 10
-615.0
 20
365.49999999999972
 30
0.0
 40
8.75
 50
0.0
 51
180.0
  0
ARC
  5
76E
  8
DATA
  6
CONTINUOUS
 62
     7
 10
-615.0
 20
365.49999999999972
 30
0.0
 40
9.8795681063124903
 50
0.0
 51
180.0
  0
CIRCLE
  5
76F
  8
DATA
  6
CONTINUOUS
 62
     7
 10
-615.0
 20
399.99999999999972
 30
0.0
 40
17.25
  0
LINE
  5
770
  8
DATA
  6
CONTINUOUS
 62
     7
 10
-647.0
 20
355.0
 30
0.0
 11
-583.0
 21
354.99999999999972
 31
0.0
  0
CIRCLE
  5
771
  8
DATA
  6
CONTINUOUS
 62
     7
 10
-615.0
 20
496.85000000000008
 30
0.0
 40
17.25
  0
ARC
  5
772
  8
DATA
  6
CONTINUOUS
 62
     7
 10
-584.00000000000011
 20
441.9999999999996
 30
0.0
 40
3.0
 50
0.0
 51
90.0
  0
ARC
  5
773
  8
DATA
  6
CONTINUOUS
 62
     7
 10
-583.0
 20
442.0
 30
0.0
 40
3.0
 50
0.0
 51
90.0
  0
LINE
  5
774
  8
DATA
  6
CONTINUOUS
 62
     7
 10
-605.12043189368751
 20
434.50000000000011
 30
0.0
 11
-605.12043189368751
 21
444.99999999999949
 31
0.0
  0
LINE
  5
775
  8
DATA
  6
CONTINUOUS
 62
     7
 10
-606.25
 20
434.50000000000011
 30
0.0
 11
-606.25
 21
444.99999999999949
 31
0.0
  0
LINE
  5
776
  8
DATA
  6
CONTINUOUS
 62
     7
 10
-623.74999999999989
 20
434.50000000000011
 30
0.0
 11
-623.74999999999989
 21
444.99999999999949
 31
0.0
  0
LINE
  5
777
  8
DATA
  6
CONTINUOUS
 62
     7
 10
-624.87956810631204
 20
434.50000000000011
 30
0.0
 11
-624.87956810631204
 21
444.99999999999949
 31
0.0
  0
ARC
  5
778
  8
DATA
  6
CONTINUOUS
 62
     7
 10
-647.0
 20
441.9999999999996
 30
0.0
 40
3.0
 50
90.0
 51
180.0
  0
ARC
  5
779
  8
DATA
  6
CONTINUOUS
 62
     7
 10
-646.0
 20
441.9999999999996
 30
0.0
 40
3.0
 50
90.0
 51
180.0
  0
ARC
  5
77A
  8
DATA
  6
CONTINUOUS
 62
     7
 10
-615.0
 20
434.50000000000011
 30
0.0
 40
8.75
 50
180.0
 51
0.0
  0
CIRCLE
  5
77B
  8
DATA
  6
CONTINUOUS
 62
     7
 10
-615.0
 20
434.4999999999996
 30
0.0
 40
3.5
  0
ARC
  5
77C
  8
DATA
  6
CONTINUOUS
 62
     7
 10
-615.0
 20
434.50000000000011
 30
0.0
 40
9.8795681063122647
 50
180.0
 51
0.0
  0
LINE
  5
77D
  8
DATA
  6
CONTINUOUS
 62
     7
 10
-647.0
 20
444.99999999999949
 30
0.0
 11
-583.0
 21
444.99999999999949
 31
0.0
  0
ARC
  5
77E
  8
DATA
  6
CONTINUOUS
 62
     7
 10
-527.15000000000009
 20
399.99999999999972
 30
0.0
 40
17.250000000000071
 50
18.59282254942736
 51
341.40717745057327
  0
LINE
  5
77F
  8
DATA
  6
CONTINUOUS
 62
     7
 10
-510.80030581325758
 20
405.4999999999996
 30
0.0
 11
-510.80030581325758
 21
394.4999999999996
 31
0.0
  0
LINE
  5
780
  8
DATA
  6
CONTINUOUS
 62
     7
 10
-467.0
 20
409.49999999999972
 30
0.0
 11
-464.5
 21
409.49999999999972
 31
0.0
  0
LINE
  5
781
  8
DATA
  6
CONTINUOUS
 62
     7
 10
-467.0
 20
394.99999999999972
 30
0.0
 11
-464.5
 21
394.99999999999972
 31
0.0
  0
LINE
  5
782
  8
DATA
  6
CONTINUOUS
 62
     7
 10
-467.0
 20
390.50000000000011
 30
0.0
 11
-464.5
 21
390.50000000000011
 31
0.0
  0
LINE
  5
783
  8
DATA
  6
CONTINUOUS
 62
     7
 10
-476.0
 20
399.99999999999972
 30
0.0
 11
-467.0
 21
399.99999999999972
 31
0.0
  0
LINE
  5
784
  8
DATA
  6
CONTINUOUS
 62
     7
 10
-476.0
 20
408.44374768689812
 30
0.0
 11
-467.0
 21
408.44374768689812
 31
0.0
  0
LINE
  5
785
  8
DATA
  6
CONTINUOUS
 62
     7
 10
-476.0
 20
391.55625231310171
 30
0.0
 11
-467.0
 21
391.55625231310171
 31
0.0
  0
LINE
  5
786
  8
DATA
  6
CONTINUOUS
 62
     7
 10
-476.0
 20
408.44374768689812
 30
0.0
 11
-476.0
 21
391.55625231310171
 31
0.0
  0
LINE
  5
787
  8
DATA
  6
CONTINUOUS
 62
     7
 10
-467.0
 20
409.49999999999972
 30
0.0
 11
-467.0
 21
390.50000000000011
 31
0.0
  0
LINE
  5
788
  8
DATA
  6
CONTINUOUS
 62
     7
 10
-449.0
 20
444.99999999999949
 30
0.0
 11
-449.0
 21
354.99999999999972
 31
0.0
  0
LINE
  5
789
  8
DATA
  6
CONTINUOUS
 62
     7
 10
-454.49999999999989
 20
444.99999999999949
 30
0.0
 11
-454.49999999999989
 21
354.99999999999972
 31
0.0
  0
LINE
  5
78A
  8
DATA
  6
CONTINUOUS
 62
     7
 10
-462.5
 20
444.99999999999949
 30
0.0
 11
-462.5
 21
410.5
 31
0.0
  0
LINE
  5
78B
  8
DATA
  6
CONTINUOUS
 62
     7
 10
-462.5
 20
389.49999999999989
 30
0.0
 11
-462.5
 21
354.99999999999972
 31
0.0
  0
LINE
  5
78C
  8
DATA
  6
CONTINUOUS
 62
     7
 10
-462.5
 20
354.99999999999972
 30
0.0
 11
-449.0
 21
354.99999999999972
 31
0.0
  0
LINE
  5
78D
  8
DATA
  6
CONTINUOUS
 62
     7
 10
-462.3671257071714
 20
408.9999999999996
 30
0.0
 11
-454.49999999999989
 21
408.9999999999996
 31
0.0
  0
LINE
  5
78E
  8
DATA
  6
CONTINUOUS
 62
     7
 10
-462.367125707171
 20
390.9999999999996
 30
0.0
 11
-454.49999999999989
 21
390.9999999999996
 31
0.0
  0
LINE
  5
78F
  8
DATA
  6
CONTINUOUS
 62
     7
 10
-462.5
 20
410.5
 30
0.0
 11
-464.5
 21
410.5
 31
0.0
  0
LINE
  5
790
  8
DATA
  6
CONTINUOUS
 62
     7
 10
-464.5
 20
389.49999999999989
 30
0.0
 11
-462.5
 21
389.49999999999989
 31
0.0
  0
LINE
  5
791
  8
DATA
  6
CONTINUOUS
 62
     7
 10
-464.5
 20
410.49999999999949
 30
0.0
 11
-464.5
 21
389.49999999999989
 31
0.0
  0
ARC
  5
792
  8
DATA
  6
CONTINUOUS
 62
     7
 10
-572.50000000002126
 20
399.99999999999909
 30
0.0
 40
110.5000000000212
 50
354.54737801218869
 51
5.4526219878118241
  0
LINE
  5
793
  8
DATA
  6
CONTINUOUS
 62
     7
 10
-462.5
 20
444.99999999999949
 30
0.0
 11
-449.0
 21
444.99999999999949
 31
0.0
  0
LINE
  5
794
  8
DATA
  6
CONTINUOUS
 62
     7
 10
-650.0
 20
575.0
 30
0.0
 11
-580.0
 21
575.0
 31
0.0
  0
LINE
  5
795
  8
DATA
  6
CONTINUOUS
 62
     7
 10
-623.74999999999989
 20
569.0
 30
0.0
 11
-606.25
 21
569.0
 31
0.0
  0
ARC
  5
796
  8
DATA
  6
CONTINUOUS
 62
     7
 10
-644.53826909813665
 20
572.91132975849962
 30
0.0
 40
4.9999999999998943
 50
190.3048464687669
 51
245.5076213631329
  0
LINE
  5
797
  8
DATA
  6
CONTINUOUS
 62
     7
 10
-650.0
 20
575.0
 30
0.0
 11
-649.45761864863596
 21
572.0169025674993
 31
0.0
  0
ARC
  5
798
  8
DATA
  6
CONTINUOUS
 62
     7
 10
-585.46173090186335
 20
572.91132975849916
 30
0.0
 40
5.0
 50
294.49237863686687
 51
349.69515353123302
  0
LINE
  5
799
  8
DATA
  6
CONTINUOUS
 62
     7
 10
-580.5423813513637
 20
572.01690256749919
 30
0.0
 11
-580.0
 21
575.0
 31
0.0
  0
LINE
  5
79A
  8
DATA
  6
CONTINUOUS
 62
     7
 10
-624.75000000000045
 20
548.0
 30
0.0
 11
-605.25000000000011
 21
548.0
 31
0.0
  0
LINE
  5
79B
  8
DATA
  6
CONTINUOUS
 62
     7
 10
-625.49999999999989
 20
559.49999999999989
 30
0.0
 11
-604.50000000000011
 21
559.49999999999989
 31
0.0
  0
LINE
  5
79C
  8
DATA
  6
CONTINUOUS
 62
     7
 10
-624.75000000000045
 20
557.00000000000011
 30
0.0
 11
-605.25000000000011
 21
557.00000000000011
 31
0.0
  0
LINE
  5
79D
  8
DATA
  6
CONTINUOUS
 62
     7
 10
-625.49999999999989
 20
562.22641096981692
 30
0.0
 11
-625.49999999999989
 21
559.49999999999989
 31
0.0
  0
LINE
  5
79E
  8
DATA
  6
CONTINUOUS
 62
     7
 10
-624.75000000000045
 20
548.0
 30
0.0
 11
-624.75000000000045
 21
557.00000000000011
 31
0.0
  0
LINE
  5
79F
  8
DATA
  6
CONTINUOUS
 62
     7
 10
-624.5
 20
557.00000000000011
 30
0.0
 11
-624.5
 21
559.49999999999989
 31
0.0
  0
LINE
  5
7A0
  8
DATA
  6
CONTINUOUS
 62
     7
 10
-619.875
 20
548.0
 30
0.0
 11
-619.875
 21
557.00000000000011
 31
0.0
  0
LINE
  5
7A1
  8
DATA
  6
CONTINUOUS
 62
     7
 10
-610.125
 20
548.0
 30
0.0
 11
-610.125
 21
557.00000000000011
 31
0.0
  0
LINE
  5
7A2
  8
DATA
  6
CONTINUOUS
 62
     7
 10
-605.49999999999989
 20
557.00000000000011
 30
0.0
 11
-605.49999999999989
 21
559.49999999999989
 31
0.0
  0
LINE
  5
7A3
  8
DATA
  6
CONTINUOUS
 62
     7
 10
-604.50000000000011
 20
559.49999999999989
 30
0.0
 11
-604.50000000000011
 21
562.22641096981692
 31
0.0
  0
LINE
  5
7A4
  8
DATA
  6
CONTINUOUS
 62
     7
 10
-605.25000000000011
 20
547.99999999999966
 30
0.0
 11
-605.25000000000011
 21
557.00000000000011
 31
0.0
  0
ARC
  5
7A5
  8
DATA
  6
CONTINUOUS
 62
     7
 10
-615.0
 20
637.7500000000008
 30
0.0
 40
76.250000000000753
 50
245.5076213631325
 51
294.4923786368671
  0
LINE
  5
7A6
  8
DATA
  6
CONTINUOUS
 62
     7
 10
-623.74999999999989
 20
562.00371296228479
 30
0.0
 11
-623.74999999999989
 21
569.0
 31
0.0
  0
LINE
  5
7A7
  8
DATA
  6
CONTINUOUS
 62
     7
 10
-606.25
 20
562.00371296228479
 30
0.0
 11
-606.25
 21
569.0
 31
0.0
  0
LINE
  5
7A8
  8
DATA
  6
CONTINUOUS
 62
     7
 10
-332.5
 20
442.0
 30
0.0
 11
-332.5
 21
357.99999999999972
 31
0.0
  0
LINE
  5
7A9
  8
DATA
  6
CONTINUOUS
 62
     7
 10
-335.0
 20
439.75695975450168
 30
0.0
 11
-335.0
 21
360.24304024549753
 31
0.0
  0
LINE
  5
7AA
  8
DATA
  6
CONTINUOUS
 62
     7
 10
-398.96615312498523
 20
442.50000000000011
 30
0.0
 11
-373.99392195633561
 21
410.38708224791787
 31
0.0
  0
LINE
  5
7AB
  8
DATA
  6
CONTINUOUS
 62
     7
 10
-400.0
 20
439.75695975450168
 30
0.0
 11
-375.9674359954177
 21
408.85240236678732
 31
0.0
  0
LINE
  5
7AC
  8
DATA
  6
CONTINUOUS
 62
     7
 10
-402.5
 20
442.0
 30
0.0
 11
-402.5
 21
357.99999999999972
 31
0.0
  0
LINE
  5
7AD
  8
DATA
  6
CONTINUOUS
 62
     7
 10
-400.0
 20
439.75695975450168
 30
0.0
 11
-400.0
 21
360.24304024549753
 31
0.0
  0
LINE
  5
7AE
  8
DATA
  6
CONTINUOUS
 62
     7
 10
-336.0338468750146
 20
442.50000000000011
 30
0.0
 11
-361.00607804366422
 21
410.38708224791787
 31
0.0
  0
LINE
  5
7AF
  8
DATA
  6
CONTINUOUS
 62
     7
 10
-335.0
 20
439.75695975450168
 30
0.0
 11
-359.03256400458258
 21
408.85240236678732
 31
0.0
  0
LINE
  5
7B0
  8
DATA
  6
CONTINUOUS
 62
     7
 10
-355.25
 20
365.49999999999972
 30
0.0
 11
-355.25
 21
357.49999999999972
 31
0.0
  0
ARC
  5
7B1
  8
DATA
  6
CONTINUOUS
 62
     7
 10
-340.3048780487801
 20
400.00000000000051
 30
0.0
 40
12.44512195122053
 50
100.1592157200317
 51
259.84078427997031
  0
CIRCLE
  5
7B2
  8
DATA
  6
CONTINUOUS
 62
     7
 10
-342.5
 20
399.99999999999972
 30
0.0
 40
3.5999999999999082
  0
ARC
  5
7B3
  8
DATA
  6
CONTINUOUS
 62
     7
 10
-367.5
 20
399.99999999999972
 30
0.0
 40
15.00000000000014
 50
7.0452700079039801
 51
47.349808152801593
  0
LINE
  5
7B4
  8
DATA
  6
CONTINUOUS
 62
     7
 10
-342.5
 20
412.24999999999972
 30
0.0
 11
-335.0
 21
412.24999999999972
 31
0.0
  0
ARC
  5
7B5
  8
DATA
  6
CONTINUOUS
 62
     7
 10
-367.5
 20
399.99999999999972
 30
0.0
 40
14.999999999999741
 50
312.6501918471983
 51
352.95472999210023
  0
LINE
  5
7B6
  8
DATA
  6
CONTINUOUS
 62
     7
 10
-342.5
 20
387.74999999999972
 30
0.0
 11
-335.0
 21
387.74999999999972
 31
0.0
  0
LINE
  5
7B7
  8
DATA
  6
CONTINUOUS
 62
     7
 10
-373.99392195633561
 20
389.61291775208122
 30
0.0
 11
-398.96615312498568
 21
357.49999999999898
 31
0.0
  0
LINE
  5
7B8
  8
DATA
  6
CONTINUOUS
 62
     7
 10
-375.9674359954177
 20
391.14759763321217
 30
0.0
 11
-400.0
 21
360.24304024549753
 31
0.0
  0
LINE
  5
7B9
  8
DATA
  6
CONTINUOUS
 62
     7
 10
-379.74999999999989
 20
365.49999999999972
 30
0.0
 11
-379.75000000000051
 21
357.49999999999972
 31
0.0
  0
ARC
  5
7BA
  8
DATA
  6
CONTINUOUS
 62
     7
 10
-399.5000000000004
 20
357.99999999999972
 30
0.0
 40
3.0
 50
180.0
 51
270.0
  0
CIRCLE
  5
7BB
  8
DATA
  6
CONTINUOUS
 62
     7
 10
-392.50000000000051
 20
399.99999999999972
 30
0.0
 40
3.5999999999999082
  0
LINE
  5
7BC
  8
DATA
  6
CONTINUOUS
 62
     7
 10
-400.0
 20
412.24999999999972
 30
0.0
 11
-392.50000000000051
 21
412.24999999999972
 31
0.0
  0
LINE
  5
7BD
  8
DATA
  6
CONTINUOUS
 62
     7
 10
-400.0
 20
387.74999999999972
 30
0.0
 11
-392.50000000000051
 21
387.74999999999972
 31
0.0
  0
ARC
  5
7BE
  8
DATA
  6
CONTINUOUS
 62
     7
 10
-394.69512195122019
 20
400.00000000000051
 30
0.0
 40
12.44512195122045
 50
280.15921572002958
 51
79.840784279968261
  0
ARC
  5
7BF
  8
DATA
  6
CONTINUOUS
 62
     7
 10
-367.5
 20
399.99999999999972
 30
0.0
 40
15.00000000000005
 50
132.65019184719969
 51
172.95472999209599
  0
ARC
  5
7C0
  8
DATA
  6
CONTINUOUS
 62
     7
 10
-367.5
 20
399.99999999999972
 30
0.0
 40
15.0
 50
187.0452700078996
 51
227.34980815280039
  0
CIRCLE
  5
7C1
  8
DATA
  6
CONTINUOUS
 62
     7
 10
-367.5
 20
365.49999999999972
 30
0.0
 40
3.5999999999999082
  0
ARC
  5
7C2
  8
DATA
  6
CONTINUOUS
 62
     7
 10
-367.5
 20
399.99999999999972
 30
0.0
 40
15.0
 50
56.91019184719832
 51
123.08980815280169
  0
CIRCLE
  5
7C3
  8
DATA
  6
CONTINUOUS
 62
     7
 10
-367.5
 20
399.99999999999972
 30
0.0
 40
4.75
  0
LINE
  5
7C4
  8
DATA
  6
CONTINUOUS
 62
     7
 10
-367.5
 20
408.9999999999996
 30
0.0
 11
-375.29422863406029
 21
404.49999999999977
 31
0.0
  0
LINE
  5
7C5
  8
DATA
  6
CONTINUOUS
 62
     7
 10
-375.29422863406029
 20
395.5
 30
0.0
 11
-367.5
 21
390.9999999999996
 31
0.0
  0
ARC
  5
7C6
  8
DATA
  6
CONTINUOUS
 62
     7
 10
-367.5
 20
399.99999999999972
 30
0.0
 40
15.000000000000179
 50
236.9101918471988
 51
303.08980815279961
  0
LINE
  5
7C7
  8
DATA
  6
CONTINUOUS
 62
     7
 10
-375.29422863406029
 20
404.49999999999977
 30
0.0
 11
-375.29422863406029
 21
395.5
 31
0.0
  0
LINE
  5
7C8
  8
DATA
  6
CONTINUOUS
 62
     7
 10
-359.70577136594011
 20
395.5
 30
0.0
 11
-359.70577136594011
 21
404.49999999999977
 31
0.0
  0
LINE
  5
7C9
  8
DATA
  6
CONTINUOUS
 62
     7
 10
-359.70577136594011
 20
404.49999999999977
 30
0.0
 11
-367.5
 21
408.9999999999996
 31
0.0
  0
LINE
  5
7CA
  8
DATA
  6
CONTINUOUS
 62
     7
 10
-367.5
 20
390.9999999999996
 30
0.0
 11
-359.70577136594011
 21
395.5
 31
0.0
  0
ARC
  5
7CB
  8
DATA
  6
CONTINUOUS
 62
     7
 10
-367.49999999999909
 20
363.30487804877993
 30
0.0
 40
12.44512195122053
 50
10.159215720031719
 51
169.84078427997039
  0
LINE
  5
7CC
  8
DATA
  6
CONTINUOUS
 62
     7
 10
-399.5000000000004
 20
354.99999999999972
 30
0.0
 11
-335.49999999999989
 21
354.99999999999972
 31
0.0
  0
LINE
  5
7CD
  8
DATA
  6
CONTINUOUS
 62
     7
 10
-398.96615312498523
 20
357.49999999999972
 30
0.0
 11
-336.03384687501512
 21
357.49999999999972
 31
0.0
  0
CIRCLE
  5
7CE
  8
DATA
  6
CONTINUOUS
 62
     7
 10
-367.5
 20
399.99999999999972
 30
0.0
 40
12.25
  0
LINE
  5
7CF
  8
DATA
  6
CONTINUOUS
 62
     7
 10
-361.00607804366422
 20
389.61291775208122
 30
0.0
 11
-336.03384687501512
 21
357.49999999999898
 31
0.0
  0
LINE
  5
7D0
  8
DATA
  6
CONTINUOUS
 62
     7
 10
-359.03256400458258
 20
391.14759763321217
 30
0.0
 11
-335.0
 21
360.24304024549753
 31
0.0
  0
ARC
  5
7D1
  8
DATA
  6
CONTINUOUS
 62
     7
 10
-335.49999999999989
 20
357.99999999999972
 30
0.0
 40
3.0
 50
270.0
 51
0.0
  0
LINE
  5
7D2
  8
DATA
  6
CONTINUOUS
 62
     7
 10
-355.25
 20
442.50000000000011
 30
0.0
 11
-355.25
 21
434.4999999999996
 31
0.0
  0
ARC
  5
7D3
  8
DATA
  6
CONTINUOUS
 62
     7
 10
-399.5000000000004
 20
442.0
 30
0.0
 40
3.0
 50
90.0
 51
180.0
  0
LINE
  5
7D4
  8
DATA
  6
CONTINUOUS
 62
     7
 10
-379.75000000000051
 20
442.50000000000011
 30
0.0
 11
-379.74999999999989
 21
434.4999999999996
 31
0.0
  0
CIRCLE
  5
7D5
  8
DATA
  6
CONTINUOUS
 62
     7
 10
-367.5
 20
434.4999999999996
 30
0.0
 40
3.5999999999999082
  0
LINE
  5
7D6
  8
DATA
  6
CONTINUOUS
 62
     7
 10
-335.49999999999989
 20
445.0
 30
0.0
 11
-399.5000000000004
 21
444.99999999999949
 31
0.0
  0
LINE
  5
7D7
  8
DATA
  6
CONTINUOUS
 62
     7
 10
-398.96615312498523
 20
442.4999999999996
 30
0.0
 11
-336.03384687501512
 21
442.4999999999996
 31
0.0
  0
ARC
  5
7D8
  8
DATA
  6
CONTINUOUS
 62
     7
 10
-367.49999999999909
 20
436.69512195121979
 30
0.0
 40
12.44512195122045
 50
190.15921572002961
 51
349.84078427996832
  0
ARC
  5
7D9
  8
DATA
  6
CONTINUOUS
 62
     7
 10
-335.49999999999989
 20
442.0
 30
0.0
 40
3.0
 50
0.0
 51
90.0
  0
LINE
  5
7DA
  8
DATA
  6
CONTINUOUS
 62
     7
 10
223.9829911999999
 20
-389.95717249703262
 30
0.0
 11
223.9829911999999
 21
-728.48715170297078
 31
0.0
  0
LINE
  5
7DB
  8
DATA
  6
CONTINUOUS
 62
     7
 10
350.0
 20
-746.82500000000005
 30
0.0
 11
350.0
 21
-371.61934960000019
 31
0.0
  0
LINE
  5
7DC
  8
DATA
  6
CONTINUOUS
 62
     7
 10
629.39999999999964
 20
-746.81999999999982
 30
0.0
 11
629.39999999999964
 21
-371.62434960000002
 31
0.0
  0
LINE
  5
7DD
  8
DATA
  6
CONTINUOUS
 62
     7
 10
420.48249999999911
 20
-387.04323949963077
 30
0.0
 11
420.48249999999962
 21
-731.40108470037262
 31
0.0
  0
LINE
  5
7DE
  8
DATA
  6
CONTINUOUS
 62
     7
 10
558.91249999999991
 20
-731.40108470037262
 30
0.0
 11
558.91249999999991
 21
-387.04323949963077
 31
0.0
  0
LINE
  5
7DF
  8
DATA
  6
CONTINUOUS
 62
     7
 10
448.19749999999971
 20
-610.40108470037262
 30
0.0
 11
448.19749999999971
 21
-507.40108470037262
 31
0.0
  0
LINE
  5
7E0
  8
DATA
  6
CONTINUOUS
 62
     7
 10
531.19749999999965
 20
-610.40108470037262
 30
0.0
 11
531.19749999999965
 21
-507.40108470037262
 31
0.0
  0
CIRCLE
  5
7E1
  8
DATA
  6
CONTINUOUS
 62
     7
 10
489.69749999999971
 20
-558.90108470037262
 30
0.0
 40
20.5
  0
CIRCLE
  5
7E2
  8
DATA
  6
CONTINUOUS
 62
     7
 10
489.69749999999971
 20
-558.90108470037262
 30
0.0
 40
18.0
  0
LINE
  5
7E3
  8
DATA
  6
CONTINUOUS
 62
     7
 10
353.17499999999922
 20
-750.0
 30
0.0
 11
626.2199999999998
 21
-750.0
 31
0.0
  0
LINE
  5
7E4
  8
DATA
  6
CONTINUOUS
 62
     7
 10
420.48249999999962
 20
-731.40108470037262
 30
0.0
 11
558.91249999999991
 21
-731.40108470037262
 31
0.0
  0
ARC
  5
7E5
  8
DATA
  6
CONTINUOUS
 62
     7
 10
220.80299120000009
 20
-728.48715170297078
 30
0.0
 40
3.1800000000002711
 50
275.00000266343488
 51
0.0
  0
ARC
  5
7E6
  8
DATA
  6
CONTINUOUS
 62
     7
 10
353.17499999999922
 20
-746.82500000000005
 30
0.0
 40
3.1749999999997272
 50
180.0
 51
270.0
  0
LINE
  5
7E7
  8
DATA
  6
CONTINUOUS
 62
     7
 10
350.92993596973253
 20
-749.07003863027057
 30
0.0
 11
420.48249999999911
 21
-731.40108470037262
 31
0.0
  0
LINE
  5
7E8
  8
DATA
  6
CONTINUOUS
 62
     7
 10
461.1975000000001
 20
-651.40108470037262
 30
0.0
 11
518.19749999999965
 21
-651.40108470037262
 31
0.0
  0
LINE
  5
7E9
  8
DATA
  6
CONTINUOUS
 62
     7
 10
461.1975000000001
 20
-664.40108470037262
 30
0.0
 11
518.19749999999965
 21
-664.40108470037262
 31
0.0
  0
LINE
  5
7EA
  8
DATA
  6
CONTINUOUS
 62
     7
 10
461.1975000000001
 20
-663.40108470037217
 30
0.0
 11
518.19749999999965
 21
-663.40108470037217
 31
0.0
  0
LINE
  5
7EB
  8
DATA
  6
CONTINUOUS
 62
     7
 10
461.1975000000001
 20
-711.40108470037262
 30
0.0
 11
518.19749999999965
 21
-711.40108470037262
 31
0.0
  0
LINE
  5
7EC
  8
DATA
  6
CONTINUOUS
 62
     7
 10
461.1975000000001
 20
-710.40108470037205
 30
0.0
 11
518.19749999999965
 21
-710.40108470037205
 31
0.0
  0
LINE
  5
7ED
  8
DATA
  6
CONTINUOUS
 62
     7
 10
461.1975000000001
 20
-723.40108470037262
 30
0.0
 11
518.19749999999965
 21
-723.40108470037262
 31
0.0
  0
TEXT
  5
7EE
  8
DATA
 62
     7
 10
464.19749999999971
 20
-720.40108470037205
 30
0.0
 40
6.015625
  1
PROFESSIONAL
 41
0.8
 11
464.19749999999971
 21
-714.38545970037217
 31
0.0
 73
     3
  0
LINE
  5
7EF
  8
DATA
  6
CONTINUOUS
 62
     7
 10
448.19749999999971
 20
-610.40108470037262
 30
0.0
 11
531.19749999999965
 21
-610.40108470037262
 31
0.0
  0
LINE
  5
7F0
  8
DATA
  6
CONTINUOUS
 62
     7
 10
473.44749999999971
 20
-591.40108470037205
 30
0.0
 11
505.9475000000001
 21
-591.40108470037205
 31
0.0
  0
LINE
  5
7F1
  8
DATA
  6
CONTINUOUS
 62
     7
 10
473.44749999999971
 20
-597.90108470037262
 30
0.0
 11
505.9475000000001
 21
-597.90108470037205
 31
0.0
  0
ARC
  5
7F2
  8
DATA
  6
CONTINUOUS
 62
     7
 10
489.69749999999971
 20
-594.65108470037205
 30
0.0
 40
10.000000000000171
 50
18.965574988848211
 51
161.03442501115089
  0
ARC
  5
7F3
  8
DATA
  6
CONTINUOUS
 62
     7
 10
489.69749999999971
 20
-594.65108470037205
 30
0.0
 40
9.9999999999999005
 50
198.9655749888515
 51
341.03442501115171
  0
LINE
  5
7F4
  8
DATA
  6
CONTINUOUS
 62
     7
 10
461.1975000000001
 20
-663.40108470037217
 30
0.0
 11
461.1975000000001
 21
-651.40108470037262
 31
0.0
  0
LINE
  5
7F5
  8
DATA
  6
CONTINUOUS
 62
     7
 10
461.1975000000001
 20
-723.40108470037262
 30
0.0
 11
461.1975000000001
 21
-711.40108470037262
 31
0.0
  0
LINE
  5
7F6
  8
DATA
  6
CONTINUOUS
 62
     7
 10
461.1975000000001
 20
-710.40108470037205
 30
0.0
 11
461.1975000000001
 21
-664.40108470037262
 31
0.0
  0
TEXT
  5
7F7
  8
DATA
 62
     7
 10
464.19749999999971
 20
-660.40108470037262
 30
0.0
 40
6.015625
  1
CONTROL
 41
0.8
 11
464.19749999999971
 21
-654.38545970037262
 31
0.0
 73
     3
  0
LINE
  5
7F8
  8
DATA
  6
CONTINUOUS
 62
     7
 10
473.44749999999971
 20
-597.90108470037262
 30
0.0
 11
473.44749999999971
 21
-591.40108470037205
 31
0.0
  0
LINE
  5
7F9
  8
DATA
  6
CONTINUOUS
 62
     7
 10
518.19749999999965
 20
-663.40108470037217
 30
0.0
 11
518.19749999999965
 21
-651.40108470037262
 31
0.0
  0
LINE
  5
7FA
  8
DATA
  6
CONTINUOUS
 62
     7
 10
518.19749999999965
 20
-723.40108470037262
 30
0.0
 11
518.19749999999965
 21
-711.40108470037262
 31
0.0
  0
LINE
  5
7FB
  8
DATA
  6
CONTINUOUS
 62
     7
 10
518.19749999999965
 20
-710.40108470037205
 30
0.0
 11
518.19749999999965
 21
-664.40108470037262
 31
0.0
  0
TEXT
  5
7FC
  8
DATA
 62
     7
 10
504.10852160446018
 20
-660.40108470037262
 30
0.0
 40
6.015625
  1
18S
 41
0.8
 11
504.10852160446018
 21
-654.38545970037262
 31
0.0
 73
     3
  0
LINE
  5
7FD
  8
DATA
  6
CONTINUOUS
 62
     7
 10
505.9475000000001
 20
-597.90108470037262
 30
0.0
 11
505.9475000000001
 21
-591.40108470037205
 31
0.0
  0
ARC
  5
7FE
  8
DATA
  6
CONTINUOUS
 62
     7
 10
626.2199999999998
 20
-746.81999999999982
 30
0.0
 40
3.180000000000291
 50
270.0
 51
0.0
  0
LINE
  5
7FF
  8
DATA
  6
CONTINUOUS
 62
     7
 10
628.4650640302674
 20
-749.07003863027057
 30
0.0
 11
558.91250000000025
 21
-731.40108470037262
 31
0.0
  0
CIRCLE
  5
800
  8
DATA
  6
CONTINUOUS
 62
     7
 10
489.69749999999971
 20
-647.90108470037262
 30
0.0
 40
1.25
  0
LINE
  5
801
  8
DATA
  6
CONTINUOUS
 62
     7
 10
353.17499999999922
 20
-368.44434960000001
 30
0.0
 11
626.2199999999998
 21
-368.44434960000001
 31
0.0
  0
LINE
  5
802
  8
DATA
  6
CONTINUOUS
 62
     7
 10
420.48249999999962
 20
-387.04323949963077
 30
0.0
 11
558.91249999999991
 21
-387.04323949963077
 31
0.0
  0
ARC
  5
803
  8
DATA
  6
CONTINUOUS
 62
     7
 10
220.80299120000049
 20
-389.95717249703262
 30
0.0
 40
3.1799999999998358
 50
0.0
 51
84.999997336564192
  0
ARC
  5
804
  8
DATA
  6
CONTINUOUS
 62
     7
 10
353.17499999999922
 20
-371.61934960000019
 30
0.0
 40
3.175000000000181
 50
90.0
 51
180.0
  0
LINE
  5
805
  8
DATA
  6
CONTINUOUS
 62
     7
 10
350.92993596973253
 20
-369.37428556973299
 30
0.0
 11
420.48249999999911
 21
-387.04323949963077
 31
0.0
  0
LINE
  5
806
  8
DATA
  6
CONTINUOUS
 62
     7
 10
448.19749999999971
 20
-507.40108470037262
 30
0.0
 11
531.19749999999965
 21
-507.40108470037262
 31
0.0
  0
CIRCLE
  5
807
  8
DATA
  6
CONTINUOUS
 62
     7
 10
457.9475000000001
 20
-558.90108470037262
 30
0.0
 40
2.5
  0
LINE
  5
808
  8
DATA
  6
CONTINUOUS
 62
     7
 10
462.69999999999982
 20
-477.04000000000008
 30
0.0
 11
462.69999999999982
 21
-473.04000000000008
 31
0.0
  0
LINE
  5
809
  8
DATA
  6
CONTINUOUS
 62
     7
 10
460.69999999999982
 20
-475.04000000000008
 30
0.0
 11
464.69999999999982
 21
-475.04000000000008
 31
0.0
  0
CIRCLE
  5
80A
  8
DATA
  6
CONTINUOUS
 62
     7
 10
462.69999999999982
 20
-475.04000000000008
 30
0.0
 40
2.75
  0
TEXT
  5
80B
  8
DATA
 62
     7
 10
481.64335937499982
 20
-405.97359375000008
 30
0.0
 40
5.15625
  1
INPUT
 41
0.8
 11
481.64335937499982
 21
-400.81734375000008
 31
0.0
 73
     3
  0
LINE
  5
80C
  8
DATA
  6
CONTINUOUS
 62
     7
 10
462.69999999999982
 20
-408.03999999999962
 30
0.0
 11
462.69999999999982
 21
-404.03999999999962
 31
0.0
  0
LINE
  5
80D
  8
DATA
  6
CONTINUOUS
 62
     7
 10
460.69999999999982
 20
-406.04000000000008
 30
0.0
 11
464.69999999999982
 21
-406.04000000000008
 31
0.0
  0
CIRCLE
  5
80E
  8
DATA
  6
CONTINUOUS
 62
     7
 10
462.69999999999982
 20
-406.04000000000008
 30
0.0
 40
2.75
  0
CIRCLE
  5
80F
  8
DATA
  6
CONTINUOUS
 62
     7
 10
521.44749999999965
 20
-558.90108470037262
 30
0.0
 40
2.5
  0
LINE
  5
810
  8
DATA
  6
CONTINUOUS
 62
     7
 10
516.69999999999982
 20
-477.04000000000008
 30
0.0
 11
516.69999999999982
 21
-473.04000000000008
 31
0.0
  0
LINE
  5
811
  8
DATA
  6
CONTINUOUS
 62
     7
 10
514.69999999999936
 20
-475.04000000000008
 30
0.0
 11
518.69999999999936
 21
-475.04000000000008
 31
0.0
  0
CIRCLE
  5
812
  8
DATA
  6
CONTINUOUS
 62
     7
 10
516.69999999999982
 20
-475.04000000000008
 30
0.0
 40
2.75
  0
LINE
  5
813
  8
DATA
  6
CONTINUOUS
 62
     7
 10
516.69999999999982
 20
-408.03999999999962
 30
0.0
 11
516.69999999999982
 21
-404.03999999999962
 31
0.0
  0
LINE
  5
814
  8
DATA
  6
CONTINUOUS
 62
     7
 10
514.69999999999936
 20
-406.04000000000008
 30
0.0
 11
518.69999999999936
 21
-406.04000000000008
 31
0.0
  0
CIRCLE
  5
815
  8
DATA
  6
CONTINUOUS
 62
     7
 10
516.69999999999982
 20
-406.04000000000008
 30
0.0
 40
2.75
  0
ARC
  5
816
  8
DATA
  6
CONTINUOUS
 62
     7
 10
626.2199999999998
 20
-371.62434960000002
 30
0.0
 40
3.1799999999998358
 50
0.0
 51
90.0
  0
LINE
  5
817
  8
DATA
  6
CONTINUOUS
 62
     7
 10
628.4650640302674
 20
-369.37428556973299
 30
0.0
 11
558.91250000000025
 21
-387.04323949963077
 31
0.0
  0
CIRCLE
  5
818
  8
DATA
  6
CONTINUOUS
 62
     7
 10
-510.30000000000013
 20
-455.79472100000049
 30
0.0
 40
20.0
  0
LINE
  5
819
  8
DATA
  6
CONTINUOUS
 62
     7
 10
-524.44213562372602
 20
-469.93685662372599
 30
0.0
 11
-573.80000000000018
 21
-519.29472099999987
 31
0.0
  0
LINE
  5
81A
  8
DATA
  6
CONTINUOUS
 62
     7
 10
-496.15786437626588
 20
-441.65258537626568
 30
0.0
 11
-446.80000000000013
 21
-392.29472099999992
 31
0.0
  0
LINE
  5
81B
  8
DATA
  6
CONTINUOUS
 62
     7
 10
-524.44213562373454
 20
-441.65258537626568
 30
0.0
 11
-573.80000000000018
 21
-392.29472099999992
 31
0.0
  0
LINE
  5
81C
  8
DATA
  6
CONTINUOUS
 62
     7
 10
-496.15786437627429
 20
-469.93685662372599
 30
0.0
 11
-486.21371606606488
 21
-479.88100493393563
 31
0.0
  0
ARC
  5
81D
  8
DATA
  6
CONTINUOUS
 62
     7
 10
-510.30000000000013
 20
-632.68682339999964
 30
0.0
 40
99.999999999999716
 50
107.086218992433
 51
342.68070990556458
  0
ARC
  5
81E
  8
DATA
  6
CONTINUOUS
 62
     7
 10
-510.30000000000013
 20
-632.68682339999964
 30
0.0
 40
92.499999999999787
 50
112.8442477852626
 51
343.87983602215991
  0
ARC
  5
81F
  8
DATA
  6
CONTINUOUS
 62
     7
 10
-510.30000000000013
 20
-632.68682339999964
 30
0.0
 40
87.499999999999872
 50
114.0980991261912
 51
345.43726702815491
  0
ARC
  5
820
  8
DATA
  6
CONTINUOUS
 62
     7
 10
-510.30000000000013
 20
-632.68682339999964
 30
0.0
 40
79.999999999999673
 50
112.6103397377674
 51
347.94484588657212
  0
LINE
  5
821
  8
DATA
  6
CONTINUOUS
 62
     7
 10
456.69999999999987
 20
-477.04000000000008
 30
0.0
 11
456.69999999999987
 21
-404.04000000000008
 31
0.0
  0
LINE
  5
822
  8
DATA
  6
CONTINUOUS
 62
     7
 10
517.69999999999982
 20
-482.04000000000008
 30
0.0
 11
461.69999999999987
 21
-482.04000000000008
 31
0.0
  0
LINE
  5
823
  8
DATA
  6
CONTINUOUS
 62
     7
 10
522.69999999999982
 20
-404.04000000000008
 30
0.0
 11
522.69999999999982
 21
-477.04000000000008
 31
0.0
  0
LINE
  5
824
  8
DATA
  6
CONTINUOUS
 62
     7
 10
461.69999999999987
 20
-399.04000000000008
 30
0.0
 11
517.69999999999982
 21
-399.04000000000008
 31
0.0
  0
LINE
  5
825
  8
DATA
  6
CONTINUOUS
 62
     7
 10
466.69999999999982
 20
-469.04000000000008
 30
0.0
 11
466.69999999999982
 21
-412.04000000000008
 31
0.0
  0
LINE
  5
826
  8
DATA
  6
CONTINUOUS
 62
     7
 10
509.69999999999982
 20
-472.04000000000008
 30
0.0
 11
469.69999999999987
 21
-472.04000000000008
 31
0.0
  0
LINE
  5
827
  8
DATA
  6
CONTINUOUS
 62
     7
 10
512.69999999999982
 20
-412.04000000000008
 30
0.0
 11
512.69999999999982
 21
-469.04000000000008
 31
0.0
  0
LINE
  5
828
  8
DATA
  6
CONTINUOUS
 62
     7
 10
469.69999999999987
 20
-409.04000000000008
 30
0.0
 11
509.69999999999982
 21
-409.04000000000008
 31
0.0
  0
ARC
  5
829
  8
DATA
  6
CONTINUOUS
 62
     7
 10
461.69999999999987
 20
-404.04000000000008
 30
0.0
 40
5.0
 50
90.0
 51
180.0
  0
ARC
  5
82A
  8
DATA
  6
CONTINUOUS
 62
     7
 10
461.69999999999987
 20
-477.04000000000008
 30
0.0
 40
5.0
 50
180.0
 51
270.0
  0
ARC
  5
82B
  8
DATA
  6
CONTINUOUS
 62
     7
 10
517.69999999999982
 20
-477.04000000000008
 30
0.0
 40
5.0
 50
270.0
 51
0.0
  0
ARC
  5
82C
  8
DATA
  6
CONTINUOUS
 62
     7
 10
517.69999999999982
 20
-404.04000000000008
 30
0.0
 40
5.0
 50
0.0
 51
90.0
  0
TEXT
  5
82D
  8
DATA
 62
     7
 10
480.03203124999982
 20
-478.97359375000008
 30
0.0
 40
5.15625
  1
OUTPUT
 41
0.8
 11
480.03203124999982
 21
-473.81734375000008
 31
0.0
 73
     3
  0
ARC
  5
82E
  8
DATA
  6
CONTINUOUS
 62
     7
 10
469.69999999999987
 20
-412.04000000000008
 30
0.0
 40
3.0
 50
90.0
 51
180.0
  0
ARC
  5
82F
  8
DATA
  6
CONTINUOUS
 62
     7
 10
469.69999999999987
 20
-469.04000000000008
 30
0.0
 40
3.0
 50
180.0
 51
270.0
  0
ARC
  5
830
  8
DATA
  6
CONTINUOUS
 62
     7
 10
509.69999999999982
 20
-469.04000000000008
 30
0.0
 40
3.0
 50
270.0
 51
0.0
  0
ARC
  5
831
  8
DATA
  6
CONTINUOUS
 62
     7
 10
509.69999999999982
 20
-412.04000000000008
 30
0.0
 40
3.0
 50
0.0
 51
90.0
  0
LINE
  5
832
  8
DATA
  6
CONTINUOUS
 62
     7
 10
473.19999999999982
 20
-463.04000000000008
 30
0.0
 11
473.19999999999982
 21
-442.54000000000008
 31
0.0
  0
LINE
  5
833
  8
DATA
  6
CONTINUOUS
 62
     7
 10
473.19999999999982
 20
-438.54000000000008
 30
0.0
 11
473.19999999999982
 21
-418.04000000000008
 31
0.0
  0
LINE
  5
834
  8
DATA
  6
CONTINUOUS
 62
     7
 10
506.19999999999982
 20
-452.54000000000008
 30
0.0
 11
504.44999999999982
 21
-452.54000000000008
 31
0.0
  0
LINE
  5
835
  8
DATA
  6
CONTINUOUS
 62
     7
 10
493.44999999999982
 20
-452.54000000000008
 30
0.0
 11
485.94999999999982
 21
-452.54000000000008
 31
0.0
  0
LINE
  5
836
  8
DATA
  6
CONTINUOUS
 62
     7
 10
474.94999999999982
 20
-452.54000000000008
 30
0.0
 11
473.19999999999982
 21
-452.54000000000008
 31
0.0
  0
LINE
  5
837
  8
DATA
  6
CONTINUOUS
 62
     7
 10
506.19999999999982
 20
-418.04000000000008
 30
0.0
 11
506.19999999999982
 21
-438.54000000000008
 31
0.0
  0
LINE
  5
838
  8
DATA
  6
CONTINUOUS
 62
     7
 10
506.19999999999982
 20
-442.54000000000008
 30
0.0
 11
506.19999999999982
 21
-463.04000000000008
 31
0.0
  0
LINE
  5
839
  8
DATA
  6
CONTINUOUS
 62
     7
 10
473.19999999999982
 20
-428.54000000000008
 30
0.0
 11
474.94999999999982
 21
-428.54000000000008
 31
0.0
  0
LINE
  5
83A
  8
DATA
  6
CONTINUOUS
 62
     7
 10
485.94999999999982
 20
-428.54000000000008
 30
0.0
 11
493.44999999999982
 21
-428.54000000000008
 31
0.0
  0
LINE
  5
83B
  8
DATA
  6
CONTINUOUS
 62
     7
 10
504.44999999999982
 20
-428.54000000000008
 30
0.0
 11
506.19999999999982
 21
-428.54000000000008
 31
0.0
  0
LINE
  5
83C
  8
DATA
  6
CONTINUOUS
 62
     7
 10
506.19999999999982
 20
-442.54000000000008
 30
0.0
 11
473.19999999999982
 21
-442.54000000000008
 31
0.0
  0
LINE
  5
83D
  8
DATA
  6
CONTINUOUS
 62
     7
 10
473.19999999999982
 20
-438.54000000000008
 30
0.0
 11
506.19999999999982
 21
-438.54000000000008
 31
0.0
  0
LINE
  5
83E
  8
DATA
  6
CONTINUOUS
 62
     7
 10
474.94999999999982
 20
-437.04000000000008
 30
0.0
 11
474.94999999999982
 21
-430.04000000000008
 31
0.0
  0
LINE
  5
83F
  8
DATA
  6
CONTINUOUS
 62
     7
 10
485.94999999999982
 20
-437.04000000000008
 30
0.0
 11
474.94999999999982
 21
-437.04000000000008
 31
0.0
  0
LINE
  5
840
  8
DATA
  6
CONTINUOUS
 62
     7
 10
485.94999999999982
 20
-430.04000000000008
 30
0.0
 11
485.94999999999982
 21
-437.04000000000008
 31
0.0
  0
LINE
  5
841
  8
DATA
  6
CONTINUOUS
 62
     7
 10
474.94999999999982
 20
-430.04000000000008
 30
0.0
 11
485.94999999999982
 21
-430.04000000000008
 31
0.0
  0
CIRCLE
  5
842
  8
DATA
  6
CONTINUOUS
 62
     7
 10
498.94999999999982
 20
-433.54000000000008
 30
0.0
 40
2.5
  0
LINE
  5
843
  8
DATA
  6
CONTINUOUS
 62
     7
 10
493.44999999999982
 20
-437.04000000000008
 30
0.0
 11
493.44999999999982
 21
-430.04000000000008
 31
0.0
  0
LINE
  5
844
  8
DATA
  6
CONTINUOUS
 62
     7
 10
504.44999999999982
 20
-437.04000000000008
 30
0.0
 11
493.44999999999982
 21
-437.04000000000008
 31
0.0
  0
LINE
  5
845
  8
DATA
  6
CONTINUOUS
 62
     7
 10
504.44999999999982
 20
-430.04000000000008
 30
0.0
 11
504.44999999999982
 21
-437.04000000000008
 31
0.0
  0
LINE
  5
846
  8
DATA
  6
CONTINUOUS
 62
     7
 10
493.44999999999982
 20
-430.04000000000008
 30
0.0
 11
504.44999999999982
 21
-430.04000000000008
 31
0.0
  0
CIRCLE
  5
847
  8
DATA
  6
CONTINUOUS
 62
     7
 10
480.44999999999987
 20
-447.54000000000008
 30
0.0
 40
2.5
  0
LINE
  5
848
  8
DATA
  6
CONTINUOUS
 62
     7
 10
474.94999999999982
 20
-451.04000000000008
 30
0.0
 11
474.94999999999982
 21
-444.04000000000008
 31
0.0
  0
LINE
  5
849
  8
DATA
  6
CONTINUOUS
 62
     7
 10
485.94999999999982
 20
-451.04000000000008
 30
0.0
 11
474.94999999999982
 21
-451.04000000000008
 31
0.0
  0
LINE
  5
84A
  8
DATA
  6
CONTINUOUS
 62
     7
 10
485.94999999999982
 20
-444.04000000000008
 30
0.0
 11
485.94999999999982
 21
-451.04000000000008
 31
0.0
  0
LINE
  5
84B
  8
DATA
  6
CONTINUOUS
 62
     7
 10
474.94999999999982
 20
-444.04000000000008
 30
0.0
 11
485.94999999999982
 21
-444.04000000000008
 31
0.0
  0
CIRCLE
  5
84C
  8
DATA
  6
CONTINUOUS
 62
     7
 10
498.94999999999982
 20
-447.54000000000008
 30
0.0
 40
2.5
  0
LINE
  5
84D
  8
DATA
  6
CONTINUOUS
 62
     7
 10
493.44999999999982
 20
-451.04000000000008
 30
0.0
 11
493.44999999999982
 21
-444.04000000000008
 31
0.0
  0
LINE
  5
84E
  8
DATA
  6
CONTINUOUS
 62
     7
 10
504.44999999999982
 20
-451.04000000000008
 30
0.0
 11
493.44999999999982
 21
-451.04000000000008
 31
0.0
  0
LINE
  5
84F
  8
DATA
  6
CONTINUOUS
 62
     7
 10
504.44999999999982
 20
-444.04000000000008
 30
0.0
 11
504.44999999999982
 21
-451.04000000000008
 31
0.0
  0
LINE
  5
850
  8
DATA
  6
CONTINUOUS
 62
     7
 10
493.44999999999982
 20
-444.04000000000008
 30
0.0
 11
504.44999999999982
 21
-444.04000000000008
 31
0.0
  0
LINE
  5
851
  8
DATA
  6
CONTINUOUS
 62
     7
 10
506.19999999999982
 20
-463.04000000000008
 30
0.0
 11
473.19999999999982
 21
-463.04000000000008
 31
0.0
  0
LINE
  5
852
  8
DATA
  6
CONTINUOUS
 62
     7
 10
473.19999999999982
 20
-418.04000000000008
 30
0.0
 11
506.19999999999982
 21
-418.04000000000008
 31
0.0
  0
LINE
  5
853
  8
DATA
  6
CONTINUOUS
 62
     7
 10
474.94999999999982
 20
-430.04000000000008
 30
0.0
 11
474.94999999999982
 21
-418.04000000000008
 31
0.0
  0
LINE
  5
854
  8
DATA
  6
CONTINUOUS
 62
     7
 10
485.94999999999982
 20
-430.04000000000008
 30
0.0
 11
485.94999999999982
 21
-418.04000000000008
 31
0.0
  0
LINE
  5
855
  8
DATA
  6
CONTINUOUS
 62
     7
 10
493.44999999999982
 20
-430.04000000000008
 30
0.0
 11
493.44999999999982
 21
-418.04000000000008
 31
0.0
  0
LINE
  5
856
  8
DATA
  6
CONTINUOUS
 62
     7
 10
504.44999999999982
 20
-430.04000000000008
 30
0.0
 11
504.44999999999982
 21
-418.04000000000008
 31
0.0
  0
LINE
  5
857
  8
DATA
  6
CONTINUOUS
 62
     7
 10
504.44999999999982
 20
-451.04000000000008
 30
0.0
 11
504.44999999999982
 21
-463.04000000000008
 31
0.0
  0
LINE
  5
858
  8
DATA
  6
CONTINUOUS
 62
     7
 10
493.44999999999982
 20
-451.04000000000008
 30
0.0
 11
493.44999999999982
 21
-463.04000000000008
 31
0.0
  0
LINE
  5
859
  8
DATA
  6
CONTINUOUS
 62
     7
 10
485.94999999999982
 20
-451.04000000000008
 30
0.0
 11
485.94999999999982
 21
-463.04000000000008
 31
0.0
  0
LINE
  5
85A
  8
DATA
  6
CONTINUOUS
 62
     7
 10
474.94999999999982
 20
-451.04000000000008
 30
0.0
 11
474.94999999999982
 21
-463.04000000000008
 31
0.0
  0
LINE
  5
85B
  8
DATA
  6
CONTINUOUS
 62
     7
 10
474.94999999999982
 20
-427.04000000000008
 30
0.0
 11
485.94999999999982
 21
-427.04000000000008
 31
0.0
  0
LINE
  5
85C
  8
DATA
  6
CONTINUOUS
 62
     7
 10
474.94999999999982
 20
-424.04000000000008
 30
0.0
 11
485.94999999999982
 21
-424.04000000000008
 31
0.0
  0
LINE
  5
85D
  8
DATA
  6
CONTINUOUS
 62
     7
 10
474.94999999999982
 20
-421.04000000000008
 30
0.0
 11
485.94999999999982
 21
-421.04000000000008
 31
0.0
  0
LINE
  5
85E
  8
DATA
  6
CONTINUOUS
 62
     7
 10
493.44999999999982
 20
-427.04000000000008
 30
0.0
 11
504.44999999999982
 21
-427.04000000000008
 31
0.0
  0
LINE
  5
85F
  8
DATA
  6
CONTINUOUS
 62
     7
 10
493.44999999999982
 20
-424.04000000000008
 30
0.0
 11
504.44999999999982
 21
-424.04000000000008
 31
0.0
  0
LINE
  5
860
  8
DATA
  6
CONTINUOUS
 62
     7
 10
493.44999999999982
 20
-421.04000000000008
 30
0.0
 11
504.44999999999982
 21
-421.04000000000008
 31
0.0
  0
LINE
  5
861
  8
DATA
  6
CONTINUOUS
 62
     7
 10
485.94999999999982
 20
-454.04000000000008
 30
0.0
 11
474.94999999999982
 21
-454.04000000000008
 31
0.0
  0
LINE
  5
862
  8
DATA
  6
CONTINUOUS
 62
     7
 10
504.44999999999982
 20
-454.04000000000008
 30
0.0
 11
493.44999999999982
 21
-454.04000000000008
 31
0.0
  0
LINE
  5
863
  8
DATA
  6
CONTINUOUS
 62
     7
 10
485.94999999999982
 20
-457.04000000000008
 30
0.0
 11
474.94999999999982
 21
-457.04000000000008
 31
0.0
  0
LINE
  5
864
  8
DATA
  6
CONTINUOUS
 62
     7
 10
504.44999999999982
 20
-457.04000000000008
 30
0.0
 11
493.44999999999982
 21
-457.04000000000008
 31
0.0
  0
LINE
  5
865
  8
DATA
  6
CONTINUOUS
 62
     7
 10
485.94999999999982
 20
-460.04000000000008
 30
0.0
 11
474.94999999999982
 21
-460.04000000000008
 31
0.0
  0
LINE
  5
866
  8
DATA
  6
CONTINUOUS
 62
     7
 10
504.44999999999982
 20
-460.04000000000008
 30
0.0
 11
493.44999999999982
 21
-460.04000000000008
 31
0.0
  0
CIRCLE
  5
867
  8
DATA
  6
CONTINUOUS
 62
     7
 10
763.00000000000011
 20
-413.00000000000011
 30
0.0
 40
10.0
  0
LINE
  5
868
  8
DATA
  6
CONTINUOUS
 62
     7
 10
692.00000000000011
 20
-587.0
 30
0.0
 11
692.00000000000011
 21
-571.0
 31
0.0
  0
LINE
  5
869
  8
DATA
  6
CONTINUOUS
 62
     7
 10
684.00000000000011
 20
-579.0
 30
0.0
 11
700.0
 21
-579.0
 31
0.0
  0
CIRCLE
  5
86A
  8
DATA
  6
CONTINUOUS
 62
     7
 10
692.00000000000011
 20
-579.0
 30
0.0
 40
11.0
  0
TEXT
  5
86B
  8
DATA
 62
     7
 10
767.7734375
 20
-302.73437500000028
 30
0.0
 40
20.625
  1
INPUT
 41
0.8
 11
767.7734375
 21
-282.10937500000023
 31
0.0
 73
     3
  0
LINE
  5
86C
  8
DATA
  6
CONTINUOUS
 62
     7
 10
692.00000000000011
 20
-310.9999999999992
 30
0.0
 11
692.00000000000011
 21
-294.9999999999992
 31
0.0
  0
LINE
  5
86D
  8
DATA
  6
CONTINUOUS
 62
     7
 10
684.00000000000011
 20
-303.00000000000023
 30
0.0
 11
700.0
 21
-303.00000000000023
 31
0.0
  0
CIRCLE
  5
86E
  8
DATA
  6
CONTINUOUS
 62
     7
 10
692.00000000000011
 20
-303.00000000000023
 30
0.0
 40
11.0
  0
LINE
  5
86F
  8
DATA
  6
CONTINUOUS
 62
     7
 10
908.0
 20
-587.0
 30
0.0
 11
908.0
 21
-571.0
 31
0.0
  0
LINE
  5
870
  8
DATA
  6
CONTINUOUS
 62
     7
 10
899.99999999999818
 20
-579.0
 30
0.0
 11
915.99999999999818
 21
-579.0
 31
0.0
  0
CIRCLE
  5
871
  8
DATA
  6
CONTINUOUS
 62
     7
 10
908.0
 20
-579.0
 30
0.0
 40
11.0
  0
LINE
  5
872
  8
DATA
  6
CONTINUOUS
 62
     7
 10
908.0
 20
-310.9999999999992
 30
0.0
 11
908.0
 21
-294.9999999999992
 31
0.0
  0
LINE
  5
873
  8
DATA
  6
CONTINUOUS
 62
     7
 10
899.99999999999818
 20
-303.00000000000023
 30
0.0
 11
915.99999999999818
 21
-303.00000000000023
 31
0.0
  0
CIRCLE
  5
874
  8
DATA
  6
CONTINUOUS
 62
     7
 10
908.0
 20
-303.00000000000023
 30
0.0
 40
11.0
  0
LINE
  5
875
  8
DATA
  6
CONTINUOUS
 62
     7
 10
668.00000000000011
 20
-587.0
 30
0.0
 11
668.00000000000011
 21
-295.00000000000023
 31
0.0
  0
LINE
  5
876
  8
DATA
  6
CONTINUOUS
 62
     7
 10
912.0
 20
-607.00000000000011
 30
0.0
 11
688.00000000000011
 21
-607.00000000000011
 31
0.0
  0
LINE
  5
877
  8
DATA
  6
CONTINUOUS
 62
     7
 10
932.0
 20
-295.00000000000023
 30
0.0
 11
932.0
 21
-587.0
 31
0.0
  0
LINE
  5
878
  8
DATA
  6
CONTINUOUS
 62
     7
 10
688.00000000000011
 20
-275.00000000000028
 30
0.0
 11
912.0
 21
-275.00000000000028
 31
0.0
  0
LINE
  5
879
  8
DATA
  6
CONTINUOUS
 62
     7
 10
708.0
 20
-555.00000000000011
 30
0.0
 11
708.0
 21
-327.00000000000028
 31
0.0
  0
LINE
  5
87A
  8
DATA
  6
CONTINUOUS
 62
     7
 10
880.0
 20
-567.0
 30
0.0
 11
720.00000000000011
 21
-567.0
 31
0.0
  0
LINE
  5
87B
  8
DATA
  6
CONTINUOUS
 62
     7
 10
892.0
 20
-327.00000000000028
 30
0.0
 11
892.0
 21
-555.00000000000011
 31
0.0
  0
LINE
  5
87C
  8
DATA
  6
CONTINUOUS
 62
     7
 10
720.00000000000011
 20
-315.00000000000028
 30
0.0
 11
880.0
 21
-315.00000000000028
 31
0.0
  0
ARC
  5
87D
  8
DATA
  6
CONTINUOUS
 62
     7
 10
688.00000000000011
 20
-295.00000000000023
 30
0.0
 40
20.0
 50
90.0
 51
180.0
  0
ARC
  5
87E
  8
DATA
  6
CONTINUOUS
 62
     7
 10
688.00000000000011
 20
-587.0
 30
0.0
 40
20.0
 50
180.0
 51
270.0
  0
ARC
  5
87F
  8
DATA
  6
CONTINUOUS
 62
     7
 10
912.0
 20
-587.0
 30
0.0
 40
20.0
 50
270.0
 51
0.0
  0
ARC
  5
880
  8
DATA
  6
CONTINUOUS
 62
     7
 10
912.0
 20
-295.00000000000023
 30
0.0
 40
20.0
 50
0.0
 51
90.0
  0
TEXT
  5
881
  8
DATA
 62
     7
 10
761.328125
 20
-594.734375
 30
0.0
 40
20.625
  1
OUTPUT
 41
0.8
 11
761.328125
 21
-574.109375
 31
0.0
 73
     3
  0
ARC
  5
882
  8
DATA
  6
CONTINUOUS
 62
     7
 10
720.00000000000011
 20
-327.00000000000028
 30
0.0
 40
12.0
 50
90.0
 51
180.0
  0
ARC
  5
883
  8
DATA
  6
CONTINUOUS
 62
     7
 10
720.00000000000011
 20
-555.00000000000011
 30
0.0
 40
12.0
 50
180.0
 51
270.0
  0
ARC
  5
884
  8
DATA
  6
CONTINUOUS
 62
     7
 10
880.0
 20
-555.00000000000011
 30
0.0
 40
12.0
 50
270.0
 51
0.0
  0
ARC
  5
885
  8
DATA
  6
CONTINUOUS
 62
     7
 10
880.0
 20
-327.00000000000028
 30
0.0
 40
12.0
 50
0.0
 51
90.0
  0
LINE
  5
886
  8
DATA
  6
CONTINUOUS
 62
     7
 10
734.00000000000011
 20
-531.00000000000011
 30
0.0
 11
734.00000000000011
 21
-449.00000000000011
 31
0.0
  0
LINE
  5
887
  8
DATA
  6
CONTINUOUS
 62
     7
 10
734.00000000000011
 20
-433.00000000000011
 30
0.0
 11
734.00000000000011
 21
-351.00000000000023
 31
0.0
  0
LINE
  5
888
  8
DATA
  6
CONTINUOUS
 62
     7
 10
866.0
 20
-489.00000000000011
 30
0.0
 11
859.0
 21
-489.00000000000011
 31
0.0
  0
LINE
  5
889
  8
DATA
  6
CONTINUOUS
 62
     7
 10
815.00000000000023
 20
-489.00000000000011
 30
0.0
 11
785.00000000000011
 21
-489.00000000000011
 31
0.0
  0
LINE
  5
88A
  8
DATA
  6
CONTINUOUS
 62
     7
 10
741.00000000000011
 20
-489.00000000000011
 30
0.0
 11
734.00000000000011
 21
-489.00000000000011
 31
0.0
  0
LINE
  5
88B
  8
DATA
  6
CONTINUOUS
 62
     7
 10
866.0
 20
-351.00000000000023
 30
0.0
 11
866.0
 21
-433.00000000000011
 31
0.0
  0
LINE
  5
88C
  8
DATA
  6
CONTINUOUS
 62
     7
 10
866.0
 20
-449.00000000000011
 30
0.0
 11
866.0
 21
-531.00000000000011
 31
0.0
  0
LINE
  5
88D
  8
DATA
  6
CONTINUOUS
 62
     7
 10
734.00000000000011
 20
-393.00000000000011
 30
0.0
 11
741.00000000000011
 21
-393.00000000000011
 31
0.0
  0
LINE
  5
88E
  8
DATA
  6
CONTINUOUS
 62
     7
 10
785.00000000000011
 20
-393.00000000000011
 30
0.0
 11
815.00000000000023
 21
-393.00000000000011
 31
0.0
  0
LINE
  5
88F
  8
DATA
  6
CONTINUOUS
 62
     7
 10
859.0
 20
-393.00000000000011
 30
0.0
 11
866.0
 21
-393.00000000000011
 31
0.0
  0
LINE
  5
890
  8
DATA
  6
CONTINUOUS
 62
     7
 10
866.0
 20
-449.00000000000011
 30
0.0
 11
734.00000000000011
 21
-449.00000000000011
 31
0.0
  0
LINE
  5
891
  8
DATA
  6
CONTINUOUS
 62
     7
 10
734.00000000000011
 20
-433.00000000000011
 30
0.0
 11
866.0
 21
-433.00000000000011
 31
0.0
  0
LINE
  5
892
  8
DATA
  6
CONTINUOUS
 62
     7
 10
741.00000000000011
 20
-427.00000000000023
 30
0.0
 11
741.00000000000011
 21
-399.00000000000011
 31
0.0
  0
LINE
  5
893
  8
DATA
  6
CONTINUOUS
 62
     7
 10
785.00000000000011
 20
-427.00000000000023
 30
0.0
 11
741.00000000000011
 21
-427.00000000000023
 31
0.0
  0
LINE
  5
894
  8
DATA
  6
CONTINUOUS
 62
     7
 10
785.00000000000011
 20
-399.00000000000011
 30
0.0
 11
785.00000000000011
 21
-427.00000000000023
 31
0.0
  0
LINE
  5
895
  8
DATA
  6
CONTINUOUS
 62
     7
 10
741.00000000000011
 20
-399.00000000000011
 30
0.0
 11
785.00000000000011
 21
-399.00000000000011
 31
0.0
  0
CIRCLE
  5
896
  8
DATA
  6
CONTINUOUS
 62
     7
 10
837.0
 20
-413.00000000000011
 30
0.0
 40
10.0
  0
LINE
  5
897
  8
DATA
  6
CONTINUOUS
 62
     7
 10
815.00000000000023
 20
-427.00000000000023
 30
0.0
 11
815.00000000000023
 21
-399.00000000000011
 31
0.0
  0
LINE
  5
898
  8
DATA
  6
CONTINUOUS
 62
     7
 10
859.0
 20
-427.00000000000023
 30
0.0
 11
815.00000000000023
 21
-427.00000000000023
 31
0.0
  0
LINE
  5
899
  8
DATA
  6
CONTINUOUS
 62
     7
 10
859.0
 20
-399.00000000000011
 30
0.0
 11
859.0
 21
-427.00000000000023
 31
0.0
  0
LINE
  5
89A
  8
DATA
  6
CONTINUOUS
 62
     7
 10
815.00000000000023
 20
-399.00000000000011
 30
0.0
 11
859.0
 21
-399.00000000000011
 31
0.0
  0
CIRCLE
  5
89B
  8
DATA
  6
CONTINUOUS
 62
     7
 10
763.00000000000011
 20
-469.00000000000023
 30
0.0
 40
10.0
  0
LINE
  5
89C
  8
DATA
  6
CONTINUOUS
 62
     7
 10
741.00000000000011
 20
-483.00000000000011
 30
0.0
 11
741.00000000000011
 21
-455.00000000000011
 31
0.0
  0
LINE
  5
89D
  8
DATA
  6
CONTINUOUS
 62
     7
 10
785.00000000000011
 20
-483.00000000000011
 30
0.0
 11
741.00000000000011
 21
-483.00000000000011
 31
0.0
  0
LINE
  5
89E
  8
DATA
  6
CONTINUOUS
 62
     7
 10
785.00000000000011
 20
-455.00000000000011
 30
0.0
 11
785.00000000000011
 21
-483.00000000000011
 31
0.0
  0
LINE
  5
89F
  8
DATA
  6
CONTINUOUS
 62
     7
 10
741.00000000000011
 20
-455.00000000000011
 30
0.0
 11
785.00000000000011
 21
-455.00000000000011
 31
0.0
  0
CIRCLE
  5
8A0
  8
DATA
  6
CONTINUOUS
 62
     7
 10
837.0
 20
-469.00000000000023
 30
0.0
 40
10.0
  0
LINE
  5
8A1
  8
DATA
  6
CONTINUOUS
 62
     7
 10
815.00000000000023
 20
-483.00000000000011
 30
0.0
 11
815.00000000000023
 21
-455.00000000000011
 31
0.0
  0
LINE
  5
8A2
  8
DATA
  6
CONTINUOUS
 62
     7
 10
859.0
 20
-483.00000000000011
 30
0.0
 11
815.00000000000023
 21
-483.00000000000011
 31
0.0
  0
LINE
  5
8A3
  8
DATA
  6
CONTINUOUS
 62
     7
 10
859.0
 20
-455.00000000000011
 30
0.0
 11
859.0
 21
-483.00000000000011
 31
0.0
  0
LINE
  5
8A4
  8
DATA
  6
CONTINUOUS
 62
     7
 10
815.00000000000023
 20
-455.00000000000011
 30
0.0
 11
859.0
 21
-455.00000000000011
 31
0.0
  0
LINE
  5
8A5
  8
DATA
  6
CONTINUOUS
 62
     7
 10
866.0
 20
-531.00000000000011
 30
0.0
 11
734.00000000000011
 21
-531.00000000000011
 31
0.0
  0
LINE
  5
8A6
  8
DATA
  6
CONTINUOUS
 62
     7
 10
734.00000000000011
 20
-351.00000000000023
 30
0.0
 11
866.0
 21
-351.00000000000023
 31
0.0
  0
LINE
  5
8A7
  8
DATA
  6
CONTINUOUS
 62
     7
 10
741.00000000000011
 20
-399.00000000000011
 30
0.0
 11
741.00000000000011
 21
-351.00000000000023
 31
0.0
  0
LINE
  5
8A8
  8
DATA
  6
CONTINUOUS
 62
     7
 10
785.00000000000011
 20
-399.00000000000011
 30
0.0
 11
785.00000000000011
 21
-351.00000000000023
 31
0.0
  0
LINE
  5
8A9
  8
DATA
  6
CONTINUOUS
 62
     7
 10
815.00000000000023
 20
-399.00000000000011
 30
0.0
 11
815.00000000000023
 21
-351.00000000000023
 31
0.0
  0
LINE
  5
8AA
  8
DATA
  6
CONTINUOUS
 62
     7
 10
859.0
 20
-399.00000000000011
 30
0.0
 11
859.0
 21
-351.00000000000023
 31
0.0
  0
LINE
  5
8AB
  8
DATA
  6
CONTINUOUS
 62
     7
 10
859.0
 20
-483.00000000000011
 30
0.0
 11
859.0
 21
-531.00000000000011
 31
0.0
  0
LINE
  5
8AC
  8
DATA
  6
CONTINUOUS
 62
     7
 10
815.00000000000023
 20
-483.00000000000011
 30
0.0
 11
815.00000000000023
 21
-531.00000000000011
 31
0.0
  0
LINE
  5
8AD
  8
DATA
  6
CONTINUOUS
 62
     7
 10
785.00000000000011
 20
-483.00000000000011
 30
0.0
 11
785.00000000000011
 21
-531.00000000000011
 31
0.0
  0
LINE
  5
8AE
  8
DATA
  6
CONTINUOUS
 62
     7
 10
741.00000000000011
 20
-483.00000000000011
 30
0.0
 11
741.00000000000011
 21
-531.00000000000011
 31
0.0
  0
LINE
  5
8AF
  8
DATA
  6
CONTINUOUS
 62
     7
 10
741.00000000000011
 20
-387.00000000000011
 30
0.0
 11
785.00000000000011
 21
-387.00000000000011
 31
0.0
  0
LINE
  5
8B0
  8
DATA
  6
CONTINUOUS
 62
     7
 10
741.00000000000011
 20
-375.00000000000011
 30
0.0
 11
785.00000000000011
 21
-375.00000000000011
 31
0.0
  0
LINE
  5
8B1
  8
DATA
  6
CONTINUOUS
 62
     7
 10
741.00000000000011
 20
-363.00000000000011
 30
0.0
 11
785.00000000000011
 21
-363.00000000000011
 31
0.0
  0
LINE
  5
8B2
  8
DATA
  6
CONTINUOUS
 62
     7
 10
815.00000000000023
 20
-387.00000000000011
 30
0.0
 11
859.0
 21
-387.00000000000011
 31
0.0
  0
LINE
  5
8B3
  8
DATA
  6
CONTINUOUS
 62
     7
 10
815.00000000000023
 20
-375.00000000000011
 30
0.0
 11
859.0
 21
-375.00000000000011
 31
0.0
  0
LINE
  5
8B4
  8
DATA
  6
CONTINUOUS
 62
     7
 10
815.00000000000023
 20
-363.00000000000011
 30
0.0
 11
859.0
 21
-363.00000000000011
 31
0.0
  0
LINE
  5
8B5
  8
DATA
  6
CONTINUOUS
 62
     7
 10
785.00000000000011
 20
-495.00000000000011
 30
0.0
 11
741.00000000000011
 21
-495.00000000000011
 31
0.0
  0
LINE
  5
8B6
  8
DATA
  6
CONTINUOUS
 62
     7
 10
859.0
 20
-495.00000000000011
 30
0.0
 11
815.00000000000023
 21
-495.00000000000011
 31
0.0
  0
LINE
  5
8B7
  8
DATA
  6
CONTINUOUS
 62
     7
 10
785.00000000000011
 20
-507.00000000000023
 30
0.0
 11
741.00000000000011
 21
-507.00000000000023
 31
0.0
  0
LINE
  5
8B8
  8
DATA
  6
CONTINUOUS
 62
     7
 10
859.0
 20
-507.00000000000023
 30
0.0
 11
815.00000000000023
 21
-507.00000000000023
 31
0.0
  0
LINE
  5
8B9
  8
DATA
  6
CONTINUOUS
 62
     7
 10
785.00000000000011
 20
-519.00000000000011
 30
0.0
 11
741.00000000000011
 21
-519.00000000000011
 31
0.0
  0
LINE
  5
8BA
  8
DATA
  6
CONTINUOUS
 62
     7
 10
859.0
 20
-519.00000000000011
 30
0.0
 11
815.00000000000023
 21
-519.00000000000011
 31
0.0
  0
TEXT
  5
8BB
  8
DATA
 62
     7
 10
811.8229986762999
 20
-710.07080052947981
 30
0.0
 40
26.855468078613281
  1
RED
 41
0.8
 11
811.8229986762999
 21
-683.21533245086653
 31
0.0
 73
     3
  0
TEXT
  5
8BC
  8
DATA
 62
     7
 10
737.82299867630002
 20
-710.07080052947981
 30
0.0
 40
26.855468078613281
  1
BLK
 41
0.8
 11
737.82299867630002
 21
-683.21533245086653
 31
0.0
 73
     3
  0
LINE
  5
8BD
  8
DATA
 62
     7
 10
763.00000000000011
 20
-625.0
 30
0.0
 11
771.50738685968815
 21
-656.75000000000011
 31
0.0
  0
LINE
  5
8BE
  8
DATA
 62
     7
 10
763.00000000000011
 20
-625.0
 30
0.0
 11
754.49261314031185
 21
-656.75000000000011
 31
0.0
  0
LINE
  5
8BF
  8
DATA
  6
CONTINUOUS
 62
     7
 10
763.00000000000011
 20
-675.0
 30
0.0
 11
763.00000000000011
 21
-625.0
 31
0.0
  0
LINE
  5
8C0
  8
DATA
 62
     7
 10
837.0
 20
-625.0
 30
0.0
 11
845.50738685968815
 21
-656.75000000000011
 31
0.0
  0
LINE
  5
8C1
  8
DATA
 62
     7
 10
837.0
 20
-625.0
 30
0.0
 11
828.49261314031185
 21
-656.75000000000011
 31
0.0
  0
LINE
  5
8C2
  8
DATA
  6
CONTINUOUS
 62
     7
 10
837.0
 20
-675.0
 30
0.0
 11
837.0
 21
-625.0
 31
0.0
  0
TEXT
  5
8C3
  8
DATA
 62
     7
 10
-700.0
 20
-1084.563664999999
 30
0.0
 40
16.93333333333333
  1
仕様および外観は予告なく変更されることがありますので、ご了承ください。
 41
0.8
 11
-700.0
 21
-1067.6303316666661
 31
0.0
 73
     3
  0
TEXT
  5
8C4
  8
DATA
 62
     7
 10
-640.5
 20
190.47499999999991
 30
0.0
 40
25.399999999999999
  1
Invisiball取付金具(壁用)
 41
0.8
 11
-640.5
 21
215.87499999999989
 31
0.0
 73
     3
  0
ARC
  5
8C5
  8
DATA
  6
CONTINUOUS
 62
     7
 10
-509.07853122009482
 20
-522.04584573699844
 30
0.0
 40
0.3506614263003302
 50
307.64190249757968
 51
354.26701928939599
  0
LINE
  5
8C6
  8
DATA
  6
CONTINUOUS
 62
     7
 10
-518.08569572002523
 20
-516.51998918672496
 30
0.0
 11
-516.44178972002521
 21
-512.60302118672496
 31
0.0
  0
LINE
  5
8C7
  8
DATA
  6
CONTINUOUS
 62
     7
 10
-518.08569572002523
 20
-516.51998918672496
 30
0.0
 11
-519.7093177200253
 21
-512.60302118672496
 31
0.0
  0
LINE
  5
8C8
  8
DATA
  6
CONTINUOUS
 62
     7
 10
-505.6244557200252
 20
-523.60302118672507
 30
0.0
 11
-505.6244557200252
 21
-512.60302118672496
 31
0.0
  0
LINE
  5
8C9
  8
DATA
  6
CONTINUOUS
 62
     7
 10
-503.51375372002519
 20
-512.60302118672496
 30
0.0
 11
-503.51375372002519
 21
-521.91852518672511
 31
0.0
  0
LINE
  5
8CA
  8
DATA
  6
CONTINUOUS
 62
     7
 10
-515.67056872002524
 20
-512.60302118672496
 30
0.0
 11
-515.67056872002524
 21
-521.91852518672511
 31
0.0
  0
LINE
  5
8CB
  8
DATA
  6
CONTINUOUS
 62
     7
 10
-513.6410467200252
 20
-512.60302118672496
 30
0.0
 11
-513.6410467200252
 21
-521.91852518672511
 31
0.0
  0
LINE
  5
8CC
  8
DATA
  6
CONTINUOUS
 62
     7
 10
-512.58569572002523
 20
-512.60302118672496
 30
0.0
 11
-512.58569572002523
 21
-523.60302118672507
 31
0.0
  0
LINE
  5
8CD
  8
DATA
  6
CONTINUOUS
 62
     7
 10
-510.7388287200252
 20
-513.63806618672481
 30
0.0
 11
-510.7388287200252
 21
-517.16944018672507
 31
0.0
  0
LINE
  5
8CE
  8
DATA
  6
CONTINUOUS
 62
     7
 10
-506.78039072002503
 20
-516.96510418672494
 30
0.0
 11
-506.78039072002503
 21
-514.38900318672495
 31
0.0
  0
LINE
  5
8CF
  8
DATA
  6
CONTINUOUS
 62
     7
 10
-508.7296237200253
 20
-514.125157186725
 30
0.0
 11
-508.7296237200253
 21
-516.68236018672485
 31
0.0
  0
ARC
  5
8D0
  8
DATA
  6
CONTINUOUS
 62
     7
 10
-516.07783272002519
 20
-520.77844118672476
 30
0.0
 40
2.8367387676847642
 50
264.69085622153369
 51
323.99119915423989
  0
LINE
  5
8D1
  8
DATA
  6
CONTINUOUS
 62
     7
 10
-517.21299972002521
 20
-520.15282718672506
 30
0.0
 11
-517.21299972002521
 21
-521.91850318672505
 31
0.0
  0
LINE
  5
8D2
  8
DATA
  6
CONTINUOUS
 62
     7
 10
-517.21299972002521
 20
-520.15282718672506
 30
0.0
 11
-519.03957172002515
 21
-520.15282718672506
 31
0.0
  0
LINE
  5
8D3
  8
DATA
  6
CONTINUOUS
 62
     7
 10
-519.03957172002515
 20
-520.15282718672506
 30
0.0
 11
-519.03957172002515
 21
-521.91850318672505
 31
0.0
  0
ARC
  5
8D4
  8
DATA
  6
CONTINUOUS
 62
     7
 10
-516.43791772002521
 20
-521.94230718672497
 30
0.0
 40
0.7677217088665264
 50
269.71184879274858
 51
1.775987005694275
  0
ARC
  5
8D5
  8
DATA
  6
CONTINUOUS
 62
     7
 10
-516.44565072002524
 20
-521.94230718672497
 30
0.0
 40
0.7677177832054875
 50
178.22401299431681
 51
270.28815120724721
  0
ARC
  5
8D6
  8
DATA
  6
CONTINUOUS
 62
     7
 10
-516.60278572002517
 20
-520.77844118672476
 30
0.0
 40
2.8367341606413041
 50
216.00880084575911
 51
275.30914377846523
  0
ARC
  5
8D7
  8
DATA
  6
CONTINUOUS
 62
     7
 10
-517.75758772002519
 20
-521.85632018672493
 30
0.0
 40
1.283480228993916
 50
182.77699544999359
 51
207.35960666714649
  0
CIRCLE
  5
8D8
  8
DATA
  6
CONTINUOUS
 62
     7
 10
-517.97406772002535
 20
-518.04213618672497
 30
0.0
 40
1.0451980000001411
  0
LINE
  5
8D9
  8
DATA
  6
CONTINUOUS
 62
     7
 10
-500.1244557200252
 20
-523.6030101867251
 30
0.0
 11
-505.6244557200252
 21
-523.6030101867251
 31
0.0
  0
LINE
  5
8DA
  8
DATA
  6
CONTINUOUS
 62
     7
 10
-500.1244557200252
 20
-523.6030101867251
 30
0.0
 11
-500.1244557200252
 21
-520.15281618672498
 31
0.0
  0
LINE
  5
8DB
  8
DATA
  6
CONTINUOUS
 62
     7
 10
-500.1244557200252
 20
-520.15282718672506
 30
0.0
 11
-501.97131172002503
 21
-520.15282718672506
 31
0.0
  0
LINE
  5
8DC
  8
DATA
  6
CONTINUOUS
 62
     7
 10
-501.97131172002503
 20
-520.15282718672506
 30
0.0
 11
-501.97131172002503
 21
-521.91850318672505
 31
0.0
  0
LINE
  5
8DD
  8
DATA
  6
CONTINUOUS
 62
     7
 10
-512.58569572002523
 20
-523.6030101867251
 30
0.0
 11
-508.7296237200253
 21
-523.60299918672513
 31
0.0
  0
LINE
  5
8DE
  8
DATA
  6
CONTINUOUS
 62
     7
 10
-510.73883972002511
 20
-522.56795418672505
 30
0.0
 11
-509.74437372002529
 21
-522.56795418672505
 31
0.0
  0
LINE
  5
8DF
  8
DATA
  6
CONTINUOUS
 62
     7
 10
-510.7388287200252
 20
-522.56795418672505
 30
0.0
 11
-510.7388287200252
 21
-518.22478018672507
 31
0.0
  0
LINE
  5
8E0
  8
DATA
  6
CONTINUOUS
 62
     7
 10
-510.73883972002511
 20
-518.22478018672507
 30
0.0
 11
-509.74437372002529
 21
-518.22478018672507
 31
0.0
  0
LINE
  5
8E1
  8
DATA
  6
CONTINUOUS
 62
     7
 10
-508.7296237200253
 20
-522.08087418672505
 30
0.0
 11
-508.7296237200253
 21
-518.71186018672506
 31
0.0
  0
ARC
  5
8E2
  8
DATA
  6
CONTINUOUS
 62
     7
 10
-514.92303072002517
 20
-521.85632018672493
 30
0.0
 40
1.283478402651629
 50
332.64039333285513
 51
357.2230045500043
  0
ARC
  5
8E3
  8
DATA
  6
CONTINUOUS
 62
     7
 10
-502.7386717200252
 20
-521.94230718672497
 30
0.0
 40
0.7677217088665257
 50
269.711848792757
 51
1.775987005693991
  0
ARC
  5
8E4
  8
DATA
  6
CONTINUOUS
 62
     7
 10
-502.7463937200252
 20
-521.94230718672497
 30
0.0
 40
0.7677177832054875
 50
178.22401299431681
 51
270.28815120724721
  0
LINE
  5
8E5
  8
DATA
  6
CONTINUOUS
 62
     7
 10
-506.78128172002511
 20
-521.83732318672492
 30
0.0
 11
-506.78128172002511
 21
-518.91482118672513
 31
0.0
  0
LINE
  5
8E6
  8
DATA
  6
CONTINUOUS
 62
     7
 10
-510.73883972002511
 20
-517.16944018672507
 30
0.0
 11
-509.74437372002529
 21
-517.16944018672507
 31
0.0
  0
ARC
  5
8E7
  8
DATA
  6
CONTINUOUS
 62
     7
 10
-508.8694557200252
 20
-521.51480318672509
 30
0.0
 40
2.0928725528899621
 50
273.83098160911351
 51
351.13514730980222
  0
LINE
  5
8E8
  8
DATA
  6
CONTINUOUS
 62
     7
 10
-515.67056872002524
 20
-512.60302118672496
 30
0.0
 11
-513.6410467200252
 21
-512.60302118672496
 31
0.0
  0
LINE
  5
8E9
  8
DATA
  6
CONTINUOUS
 62
     7
 10
-519.7093177200253
 20
-512.60302118672496
 30
0.0
 11
-516.44178972002521
 21
-512.60302118672496
 31
0.0
  0
LINE
  5
8EA
  8
DATA
  6
CONTINUOUS
 62
     7
 10
-505.6244557200252
 20
-512.60302118672496
 30
0.0
 11
-503.51375372002519
 21
-512.60302118672496
 31
0.0
  0
LINE
  5
8EB
  8
DATA
  6
CONTINUOUS
 62
     7
 10
-512.58569572002523
 20
-512.60302118672496
 30
0.0
 11
-508.708426579064
 21
-512.60303008983942
 31
0.0
  0
LINE
  5
8EC
  8
DATA
  6
CONTINUOUS
 62
     7
 10
-510.73883972002511
 20
-513.6380771867249
 30
0.0
 11
-509.74437372002529
 21
-513.6380771867249
 31
0.0
  0
ARC
  5
8ED
  8
DATA
  6
CONTINUOUS
 62
     7
 10
-508.84858872002519
 20
-514.68802718672498
 30
0.0
 40
2.0897029262027251
 50
8.2269238590164484
 51
86.154126692155259
  0
ARC
  5
8EE
  8
DATA
  6
CONTINUOUS
 62
     7
 10
-509.73263071116162
 20
-520.6388974300794
 30
0.0
 40
1.929092498719905
 50
269.65121993761181
 51
282.8264828068726
  0
ARC
  5
8EF
  8
DATA
  6
CONTINUOUS
 62
     7
 10
-509.51596308981198
 20
-521.45447952907477
 30
0.0
 40
1.086181694062561
 50
281.23310362266602
 51
306.86200889406501
  0
ARC
  5
8F0
  8
DATA
  6
CONTINUOUS
 62
     7
 10
-509.07853122009482
 20
-518.74688863645133
 30
0.0
 40
0.3506614263002887
 50
5.7329807106039947
 51
52.35809750240886
  0
ARC
  5
8F1
  8
DATA
  6
CONTINUOUS
 62
     7
 10
-509.73263071116162
 20
-520.15383694337061
 30
0.0
 40
1.9290924987199041
 50
77.173517193127381
 51
90.348780062388116
  0
ARC
  5
8F2
  8
DATA
  6
CONTINUOUS
 62
     7
 10
-509.51596308981198
 20
-519.33825484437511
 30
0.0
 40
1.086181694062522
 50
53.137991105931349
 51
78.766896377333978
  0
ARC
  5
8F3
  8
DATA
  6
CONTINUOUS
 62
     7
 10
-507.84572972002519
 20
-518.98677218672492
 30
0.0
 40
1.0668769803052101
 50
3.867006359816259
 51
88.361634567899202
  0
ARC
  5
8F4
  8
DATA
  6
CONTINUOUS
 62
     7
 10
-507.84670872002511
 20
-516.85286018672514
 30
0.0
 40
1.0679371339422949
 50
271.68928210464139
 51
356.0782829826606
  0
ARC
  5
8F5
  8
DATA
  6
CONTINUOUS
 62
     7
 10
-509.07853122009482
 20
-516.64733173699858
 30
0.0
 40
0.35066142630042
 50
307.64190249756848
 51
354.26701928937928
  0
ARC
  5
8F6
  8
DATA
  6
CONTINUOUS
 62
     7
 10
-509.73263071116162
 20
-515.24038343007931
 30
0.0
 40
1.929092498719905
 50
269.65121993761181
 51
282.8264828068726
  0
ARC
  5
8F7
  8
DATA
  6
CONTINUOUS
 62
     7
 10
-509.51596308981198
 20
-516.0559655290748
 30
0.0
 40
1.086181694062561
 50
281.23310362266602
 51
306.86200889406501
  0
ARC
  5
8F8
  8
DATA
  6
CONTINUOUS
 62
     7
 10
-509.07853122009482
 20
-514.16018563645139
 30
0.0
 40
0.3506614263002887
 50
5.7329807106039947
 51
52.358097502434902
  0
ARC
  5
8F9
  8
DATA
  6
CONTINUOUS
 62
     7
 10
-509.73263071116162
 20
-515.56713394337055
 30
0.0
 40
1.9290924987199041
 50
77.173517193127381
 51
90.348780062388116
  0
ARC
  5
8FA
  8
DATA
  6
CONTINUOUS
 62
     7
 10
-509.51596308981198
 20
-514.75155184437517
 30
0.0
 40
1.086181694062613
 50
53.137991105934972
 51
78.766896377333978
  0
ARC
  5
8FB
  8
DATA
  6
CONTINUOUS
 62
     7
 10
491.86726283710442
 20
-694.22873694323323
 30
0.0
 40
0.6216270738959965
 50
307.64190249757382
 51
354.26701928940201
  0
LINE
  5
8FC
  8
DATA
  6
CONTINUOUS
 62
     7
 10
475.90001667813652
 20
-684.43290033138464
 30
0.0
 11
478.81421367813658
 21
-677.48918433138465
 31
0.0
  0
LINE
  5
8FD
  8
DATA
  6
CONTINUOUS
 62
     7
 10
475.90001667813652
 20
-684.43290033138464
 30
0.0
 11
473.02177767813669
 21
-677.48918433138465
 31
0.0
  0
LINE
  5
8FE
  8
DATA
  6
CONTINUOUS
 62
     7
 10
497.99039667813668
 20
-696.98918433138465
 30
0.0
 11
497.99039667813668
 21
-677.48918433138465
 31
0.0
  0
LINE
  5
8FF
  8
DATA
  6
CONTINUOUS
 62
     7
 10
501.73209567813672
 20
-677.48918433138465
 30
0.0
 11
501.73209567813672
 21
-694.00303233138459
 31
0.0
  0
LINE
  5
900
  8
DATA
  6
CONTINUOUS
 62
     7
 10
480.18137817813653
 20
-677.48918433138465
 30
0.0
 11
480.18137817813653
 21
-694.00303233138459
 31
0.0
  0
LINE
  5
901
  8
DATA
  6
CONTINUOUS
 62
     7
 10
483.77916717813662
 20
-677.48918433138465
 30
0.0
 11
483.77916717813662
 21
-694.00303233138459
 31
0.0
  0
LINE
  5
902
  8
DATA
  6
CONTINUOUS
 62
     7
 10
485.65001667813658
 20
-677.48918433138465
 30
0.0
 11
485.65001667813658
 21
-696.98918433138465
 31
0.0
  0
LINE
  5
903
  8
DATA
  6
CONTINUOUS
 62
     7
 10
488.92400817813672
 20
-679.32403683138466
 30
0.0
 11
488.92400817813672
 21
-685.58419983138469
 31
0.0
  0
LINE
  5
904
  8
DATA
  6
CONTINUOUS
 62
     7
 10
495.94123917813653
 20
-685.22196783138475
 30
0.0
 11
495.94123917813653
 21
-680.65524333138467
 31
0.0
  0
LINE
  5
905
  8
DATA
  6
CONTINUOUS
 62
     7
 10
492.48578067813668
 20
-680.18751633138459
 30
0.0
 11
492.48578067813668
 21
-684.72073983138455
 31
0.0
  0
ARC
  5
906
  8
DATA
  6
CONTINUOUS
 62
     7
 10
479.45941017813652
 20
-691.98197433138444
 30
0.0
 40
5.0287641790774114
 50
264.69085622153619
 51
323.9911991542408
  0
LINE
  5
907
  8
DATA
  6
CONTINUOUS
 62
     7
 10
477.44706867813647
 20
-690.87293133138462
 30
0.0
 11
477.44706867813647
 21
-694.00299333138435
 31
0.0
  0
LINE
  5
908
  8
DATA
  6
CONTINUOUS
 62
     7
 10
477.44706867813647
 20
-690.87293133138462
 30
0.0
 11
474.20905467813668
 21
-690.87293133138462
 31
0.0
  0
LINE
  5
909
  8
DATA
  6
CONTINUOUS
 62
     7
 10
474.20905467813668
 20
-690.87293133138462
 30
0.0
 11
474.20905467813668
 21
-694.00299333138435
 31
0.0
  0
ARC
  5
90A
  8
DATA
  6
CONTINUOUS
 62
     7
 10
478.8210776781367
 20
-694.04519133138479
 30
0.0
 40
1.3609612111724521
 50
269.71184879275069
 51
1.7759870056932521
  0
ARC
  5
90B
  8
DATA
  6
CONTINUOUS
 62
     7
 10
478.8073691781367
 20
-694.04519133138479
 30
0.0
 40
1.3609542520462541
 50
178.22401299431951
 51
270.28815120724659
  0
ARC
  5
90C
  8
DATA
  6
CONTINUOUS
 62
     7
 10
478.52881167813678
 20
-691.98197433138444
 30
0.0
 40
5.0287560120459229
 50
216.00880084575971
 51
275.3091437784642
  0
ARC
  5
90D
  8
DATA
  6
CONTINUOUS
 62
     7
 10
476.48166267813662
 20
-693.89275983138464
 30
0.0
 40
2.2752604059435502
 50
182.77699544999211
 51
207.3596066671484
  0
CIRCLE
  5
90E
  8
DATA
  6
CONTINUOUS
 62
     7
 10
476.09790267813668
 20
-687.1312518313847
 30
0.0
 40
1.8528509999999301
  0
LINE
  5
90F
  8
DATA
  6
CONTINUOUS
 62
     7
 10
507.74039667813668
 20
-696.98916483138453
 30
0.0
 11
497.99039667813668
 21
-696.98916483138453
 31
0.0
  0
LINE
  5
910
  8
DATA
  6
CONTINUOUS
 62
     7
 10
507.74039667813668
 20
-696.98916483138453
 30
0.0
 11
507.74039667813668
 21
-690.87291183138473
 31
0.0
  0
LINE
  5
911
  8
DATA
  6
CONTINUOUS
 62
     7
 10
507.74039667813668
 20
-690.87293133138462
 30
0.0
 11
504.4664246781366
 21
-690.87293133138462
 31
0.0
  0
LINE
  5
912
  8
DATA
  6
CONTINUOUS
 62
     7
 10
504.4664246781366
 20
-690.87293133138462
 30
0.0
 11
504.4664246781366
 21
-694.00299333138435
 31
0.0
  0
LINE
  5
913
  8
DATA
  6
CONTINUOUS
 62
     7
 10
485.65001667813658
 20
-696.98916483138453
 30
0.0
 11
492.48578067813668
 21
-696.98914533138475
 31
0.0
  0
LINE
  5
914
  8
DATA
  6
CONTINUOUS
 62
     7
 10
488.9239886781366
 20
-695.15429283138462
 30
0.0
 11
490.68690567813672
 21
-695.15429283138462
 31
0.0
  0
LINE
  5
915
  8
DATA
  6
CONTINUOUS
 62
     7
 10
488.92400817813672
 20
-695.15429283138462
 30
0.0
 11
488.92400817813672
 21
-687.45502983138442
 31
0.0
  0
LINE
  5
916
  8
DATA
  6
CONTINUOUS
 62
     7
 10
488.9239886781366
 20
-687.45502983138442
 30
0.0
 11
490.68690567813672
 21
-687.45502983138442
 31
0.0
  0
LINE
  5
917
  8
DATA
  6
CONTINUOUS
 62
     7
 10
492.48578067813668
 20
-694.29083283138436
 30
0.0
 11
492.48578067813668
 21
-688.31848983138468
 31
0.0
  0
ARC
  5
918
  8
DATA
  6
CONTINUOUS
 62
     7
 10
481.50655917813651
 20
-693.89275983138464
 30
0.0
 40
2.2752571683368168
 50
332.64039333285461
 51
357.2230045500043
  0
ARC
  5
919
  8
DATA
  6
CONTINUOUS
 62
     7
 10
503.1061046781366
 20
-694.04519133138479
 30
0.0
 40
1.3609612111724521
 50
269.71184879275307
 51
1.7759870056933089
  0
ARC
  5
91A
  8
DATA
  6
CONTINUOUS
 62
     7
 10
503.09241567813677
 20
-694.04519133138479
 30
0.0
 40
1.3609542520462541
 50
178.22401299431951
 51
270.28815120724897
  0
LINE
  5
91B
  8
DATA
  6
CONTINUOUS
 62
     7
 10
495.93965967813659
 20
-693.85908333138445
 30
0.0
 11
495.93965967813659
 21
-688.6782843313847
 31
0.0
  0
LINE
  5
91C
  8
DATA
  6
CONTINUOUS
 62
     7
 10
488.9239886781366
 20
-685.58419983138469
 30
0.0
 11
490.68690567813672
 21
-685.58419983138469
 31
0.0
  0
ARC
  5
91D
  8
DATA
  6
CONTINUOUS
 62
     7
 10
492.23789667813668
 20
-693.28734333138459
 30
0.0
 40
3.7100922528503681
 50
273.83098160911482
 51
351.13514730980222
  0
LINE
  5
91E
  8
DATA
  6
CONTINUOUS
 62
     7
 10
480.18137817813653
 20
-677.48918433138465
 30
0.0
 11
483.77916717813662
 21
-677.48918433138465
 31
0.0
  0
LINE
  5
91F
  8
DATA
  6
CONTINUOUS
 62
     7
 10
473.02177767813669
 20
-677.48918433138465
 30
0.0
 11
478.81421367813658
 21
-677.48918433138465
 31
0.0
  0
LINE
  5
920
  8
DATA
  6
CONTINUOUS
 62
     7
 10
497.99039667813668
 20
-677.48918433138465
 30
0.0
 11
501.73209567813672
 21
-677.48918433138465
 31
0.0
  0
LINE
  5
921
  8
DATA
  6
CONTINUOUS
 62
     7
 10
485.65001667813658
 20
-677.48918433138465
 30
0.0
 11
492.52335742802262
 21
-677.48920011417852
 31
0.0
  0
LINE
  5
922
  8
DATA
  6
CONTINUOUS
 62
     7
 10
488.9239886781366
 20
-679.32405633138467
 30
0.0
 11
490.68690567813672
 21
-679.32405633138467
 31
0.0
  0
ARC
  5
923
  8
DATA
  6
CONTINUOUS
 62
     7
 10
492.27488817813662
 20
-681.18533133138465
 30
0.0
 40
3.7044733691774758
 50
8.2269238590154217
 51
86.154126692152005
  0
ARC
  5
924
  8
DATA
  6
CONTINUOUS
 62
     7
 10
490.70772283021279
 20
-691.73460130824003
 30
0.0
 40
3.4197548840944059
 50
269.65121993761818
 51
282.82648280687249
  0
ARC
  5
925
  8
DATA
  6
CONTINUOUS
 62
     7
 10
491.09181543169672
 20
-693.18040593827754
 30
0.0
 40
1.925503912201719
 50
281.23310362265568
 51
306.86200889405961
  0
ARC
  5
926
  8
DATA
  6
CONTINUOUS
 62
     7
 10
491.86726283710442
 20
-688.38058571953593
 30
0.0
 40
0.6216270738960072
 50
5.7329807106079294
 51
52.358097502426141
  0
ARC
  5
927
  8
DATA
  6
CONTINUOUS
 62
     7
 10
490.70772283021279
 20
-690.87472135452947
 30
0.0
 40
3.4197548840944001
 50
77.173517193127495
 51
90.348780062381735
  0
ARC
  5
928
  8
DATA
  6
CONTINUOUS
 62
     7
 10
491.09181543169672
 20
-689.42891672449184
 30
0.0
 40
1.9255039122018101
 50
53.137991105938973
 51
78.766896377344906
  0
ARC
  5
929
  8
DATA
  6
CONTINUOUS
 62
     7
 10
494.0526836781367
 20
-688.80583383138435
 30
0.0
 40
1.8912819196317661
 50
3.867006359818232
 51
88.36163456790004
  0
ARC
  5
92A
  8
DATA
  6
CONTINUOUS
 62
     7
 10
494.05094817813659
 20
-685.02298983138473
 30
0.0
 40
1.8931612828977391
 50
271.68928210464878
 51
356.07828298265861
  0
ARC
  5
92B
  8
DATA
  6
CONTINUOUS
 62
     7
 10
491.86726283710442
 20
-684.6586439432333
 30
0.0
 40
0.6216270738961766
 50
307.64190249756098
 51
354.26701928939309
  0
ARC
  5
92C
  8
DATA
  6
CONTINUOUS
 62
     7
 10
490.70772283021279
 20
-682.1645083082401
 30
0.0
 40
3.4197548840944059
 50
269.65121993761818
 51
282.82648280687249
  0
ARC
  5
92D
  8
DATA
  6
CONTINUOUS
 62
     7
 10
491.09181543169672
 20
-683.61031293827762
 30
0.0
 40
1.925503912201719
 50
281.23310362265568
 51
306.86200889406172
  0
ARC
  5
92E
  8
DATA
  6
CONTINUOUS
 62
     7
 10
491.86726283710442
 20
-680.24961221953606
 30
0.0
 40
0.6216270738960072
 50
5.7329807106079294
 51
52.35809750243029
  0
ARC
  5
92F
  8
DATA
  6
CONTINUOUS
 62
     7
 10
490.70772283021279
 20
-682.74374785452915
 30
0.0
 40
3.4197548840944001
 50
77.173517193127495
 51
90.348780062381735
  0
ARC
  5
930
  8
DATA
  6
CONTINUOUS
 62
     7
 10
491.09181543169672
 20
-681.29794322449163
 30
0.0
 40
1.925503912201719
 50
53.137991105936962
 51
78.766896377344267
  0
ENDSEC
  0
EOF
